  0
SECTION
  2
HEADER
  9
$ACADVER
  1
AC1014
  9
$ACADMAINTVER
 70
     9
  9
$DWGCODEPAGE
  3
ANSI_1252
  9
$INSBASE
 10
0.0
 20
0.0
 30
0.0
  9
$EXTMIN
 10
0.0
 20
0.0
 30
0.0
  9
$EXTMAX
 10
25.0
 20
35.0
 30
0.0
  9
$LIMMIN
 10
0.0
 20
0.0
  9
$LIMMAX
 10
420.0
 20
297.0
  9
$ORTHOMODE
 70
     0
  9
$REGENMODE
 70
     1
  9
$FILLMODE
 70
     1
  9
$QTEXTMODE
 70
     0
  9
$MIRRTEXT
 70
     1
  9
$DRAGMODE
 70
     2
  9
$LTSCALE
 40
4.2
  9
$OSMODE
 70
    37
  9
$ATTMODE
 70
     1
  9
$TEXTSIZE
 40
2.5
  9
$TRACEWID
 40
1.0
  9
$TEXTSTYLE
  7
STANDARD
  9
$CLAYER
  8
0
  9
$CELTYPE
  6
BYLAYER
  9
$CECOLOR
 62
   256
  9
$CELTSCALE
 40
1.0
  9
$DELOBJ
 70
     1
  9
$DISPSILH
 70
     0
  9
$DIMSCALE
 40
1.0
  9
$DIMASZ
 40
2.5
  9
$DIMEXO
 40
0.625
  9
$DIMDLI
 40
3.75
  9
$DIMRND
 40
0.0
  9
$DIMDLE
 40
0.0
  9
$DIMEXE
 40
1.25
  9
$DIMTP
 40
0.0
  9
$DIMTM
 40
0.0
  9
$DIMTXT
 40
2.5
  9
$DIMCEN
 40
2.5
  9
$DIMTSZ
 40
0.0
  9
$DIMTOL
 70
     0
  9
$DIMLIM
 70
     0
  9
$DIMTIH
 70
     0
  9
$DIMTOH
 70
     0
  9
$DIMSE1
 70
     0
  9
$DIMSE2
 70
     0
  9
$DIMTAD
 70
     1
  9
$DIMZIN
 70
     8
  9
$DIMBLK
  1

  9
$DIMASO
 70
     1
  9
$DIMSHO
 70
     1
  9
$DIMPOST
  1

  9
$DIMAPOST
  1

  9
$DIMALT
 70
     0
  9
$DIMALTD
 70
     3
  9
$DIMALTF
 40
0.03937007874016
  9
$DIMLFAC
 40
1.0
  9
$DIMTOFL
 70
     1
  9
$DIMTVP
 40
0.0
  9
$DIMTIX
 70
     0
  9
$DIMSOXD
 70
     0
  9
$DIMSAH
 70
     0
  9
$DIMBLK1
  1

  9
$DIMBLK2
  1

  9
$DIMSTYLE
  2
ISO-25
  9
$DIMCLRD
 70
     0
  9
$DIMCLRE
 70
     0
  9
$DIMCLRT
 70
     0
  9
$DIMTFAC
 40
1.0
  9
$DIMGAP
 40
0.625
  9
$DIMJUST
 70
     0
  9
$DIMSD1
 70
     0
  9
$DIMSD2
 70
     0
  9
$DIMTOLJ
 70
     0
  9
$DIMTZIN
 70
     8
  9
$DIMALTZ
 70
     0
  9
$DIMALTTZ
 70
     0
  9
$DIMFIT
 70
     3
  9
$DIMUPT
 70
     0
  9
$DIMUNIT
 70
     2
  9
$DIMDEC
 70
     2
  9
$DIMTDEC
 70
     2
  9
$DIMALTU
 70
     2
  9
$DIMALTTD
 70
     3
  9
$DIMTXSTY
  7
STANDARD
  9
$DIMAUNIT
 70
     0
  9
$LUNITS
 70
     2
  9
$LUPREC
 70
     4
  9
$SKETCHINC
 40
1.0
  9
$FILLETRAD
 40
10.0
  9
$AUNITS
 70
     0
  9
$AUPREC
 70
     0
  9
$MENU
  1
.
  9
$ELEVATION
 40
0.0
  9
$PELEVATION
 40
0.0
  9
$THICKNESS
 40
0.0
  9
$LIMCHECK
 70
     0
  9
$CHAMFERA
 40
0.0
  9
$CHAMFERB
 40
0.0
  9
$CHAMFERC
 40
0.0
  9
$CHAMFERD
 40
0.0
  9
$SKPOLY
 70
     0
  9
$TDCREATE
 40
2458499.688888889
  9
$TDUPDATE
 40
2458499.651354896
  9
$TDINDWG
 40
0.0000000116
  9
$TDUSRTIMER
 40
0.0000000116
  9
$USRTIMER
 70
     1
  9
$ANGBASE
 50
0.0
  9
$ANGDIR
 70
     0
  9
$PDMODE
 70
     0
  9
$PDSIZE
 40
0.0
  9
$PLINEWID
 40
0.0
  9
$COORDS
 70
     1
  9
$SPLFRAME
 70
     0
  9
$SPLINETYPE
 70
     6
  9
$SPLINESEGS
 70
     8
  9
$ATTDIA
 70
     0
  9
$ATTREQ
 70
     1
  9
$HANDLING
 70
     1
  9
$HANDSEED
  5
20B
  9
$SURFTAB1
 70
     6
  9
$SURFTAB2
 70
     6
  9
$SURFTYPE
 70
     6
  9
$SURFU
 70
     6
  9
$SURFV
 70
     6
  9
$UCSNAME
  2

  9
$UCSORG
 10
0.0
 20
0.0
 30
0.0
  9
$UCSXDIR
 10
1.0
 20
0.0
 30
0.0
  9
$UCSYDIR
 10
0.0
 20
1.0
 30
0.0
  9
$PUCSNAME
  2

  9
$PUCSORG
 10
0.0
 20
0.0
 30
0.0
  9
$PUCSXDIR
 10
1.0
 20
0.0
 30
0.0
  9
$PUCSYDIR
 10
0.0
 20
1.0
 30
0.0
  9
$USERI1
 70
     0
  9
$USERI2
 70
     0
  9
$USERI3
 70
     0
  9
$USERI4
 70
     0
  9
$USERI5
 70
     0
  9
$USERR1
 40
0.0
  9
$USERR2
 40
0.0
  9
$USERR3
 40
0.0
  9
$USERR4
 40
0.0
  9
$USERR5
 40
0.0
  9
$WORLDVIEW
 70
     1
  9
$SHADEDGE
 70
     3
  9
$SHADEDIF
 70
    70
  9
$TILEMODE
 70
     1
  9
$MAXACTVP
 70
    64
  9
$PINSBASE
 10
0.0
 20
0.0
 30
0.0
  9
$PLIMCHECK
 70
     0
  9
$PEXTMIN
 10
1.000000000000000E+20
 20
1.000000000000000E+20
 30
1.000000000000000E+20
  9
$PEXTMAX
 10
-1.000000000000000E+20
 20
-1.000000000000000E+20
 30
-1.000000000000000E+20
  9
$PLIMMIN
 10
0.0
 20
0.0
  9
$PLIMMAX
 10
420.0
 20
297.0
  9
$UNITMODE
 70
     0
  9
$VISRETAIN
 70
     1
  9
$PLINEGEN
 70
     0
  9
$PSLTSCALE
 70
     1
  9
$TREEDEPTH
 70
  3020
  9
$PICKSTYLE
 70
     1
  9
$CMLSTYLE
  2
STANDARD
  9
$CMLJUST
 70
     0
  9
$CMLSCALE
 40
20.0
  9
$PROXYGRAPHICS
 70
     1
  9
$MEASUREMENT
 70
     1
  0
ENDSEC
  0
SECTION
  2
CLASSES
  0
CLASS
  1
ACDBDICTIONARYWDFLT
  2
AcDbDictionaryWithDefault
  3
ObjectDBX Classes
 90
        0
280
     0
281
     0
  0
CLASS
  1
VISUALSTYLE
  2
AcDbVisualStyle
  3
ObjectDBX Classes
 90
     4095
280
     0
281
     0
  0
CLASS
  1
MATERIAL
  2
AcDbMaterial
  3
ObjectDBX Classes
 90
     1153
280
     0
281
     0
  0
CLASS
  1
SCALE
  2
AcDbScale
  3
ObjectDBX Classes
 90
     1153
280
     0
281
     0
  0
CLASS
  1
TABLESTYLE
  2
AcDbTableStyle
  3
ObjectDBX Classes
 90
     4095
280
     0
281
     0
  0
CLASS
  1
MLEADERSTYLE
  2
AcDbMLeaderStyle
  3
ACDB_MLEADERSTYLE_CLASS
 90
     4095
280
     0
281
     0
  0
CLASS
  1
SUN
  2
AcDbSun
  3
SCENEOE
 90
     1153
280
     0
281
     0
  0
CLASS
  1
DICTIONARYVAR
  2
AcDbDictionaryVar
  3
ObjectDBX Classes
 90
        0
280
     0
281
     0
  0
CLASS
  1
XRECORD
  2
AcDbXrecord
  3
ObjectDBX Classes
 90
        0
280
     0
281
     0
  0
CLASS
  1
LWPOLYLINE
  2
AcDbPolyline
  3
ObjectDBX Classes
 90
        0
280
     0
281
     1
  0
CLASS
  1
HATCH
  2
AcDbHatch
  3
ObjectDBX Classes
 90
        0
280
     0
281
     1
  0
CLASS
  1
ACDBPLACEHOLDER
  2
AcDbPlaceHolder
  3
ObjectDBX Classes
 90
        0
280
     0
281
     0
  0
CLASS
  1
LAYOUT
  2
AcDbLayout
  3
ObjectDBX Classes
 90
        0
280
     0
281
     0
  0
ENDSEC
  0
SECTION
  2
TABLES
  0
TABLE
  2
VPORT
  5
8
102
{ACAD_XDICTIONARY
360
200
102
}
330
0
100
AcDbSymbolTable
 70
     1
  0
VPORT
  5
29
330
8
100
AcDbSymbolTableRecord
100
AcDbViewportTableRecord
  2
*ACTIVE
 70
     0
 10
0.0
 20
0.0
 11
1.0
 21
1.0
 12
33.09925900000001
 22
-4.315946999999994
 13
0.0
 23
0.0
 14
10.0
 24
10.0
 15
10.0
 25
10.0
 16
0.0
 26
0.0
 36
1.0
 17
0.0
 27
0.0
 37
0.0
 40
194.86857648
 41
0.3718843632412828
 42
50.0
 43
0.0
 44
0.0
 50
0.0
 51
0.0
 71
     0
 72
   100
 73
     1
 74
     3
 75
     0
 76
     0
 77
     0
 78
     0
  0
ENDTAB
  0
TABLE
  2
LTYPE
  5
5
330
0
100
AcDbSymbolTable
 70
     2
  0
LTYPE
  5
14
330
5
100
AcDbSymbolTableRecord
100
AcDbLinetypeTableRecord
  2
BYBLOCK
 70
     0
  3

 72
    65
 73
     0
 40
0.0
  0
LTYPE
  5
15
330
5
100
AcDbSymbolTableRecord
100
AcDbLinetypeTableRecord
  2
BYLAYER
 70
     0
  3

 72
    65
 73
     0
 40
0.0
  0
LTYPE
  5
16
330
5
100
AcDbSymbolTableRecord
100
AcDbLinetypeTableRecord
  2
CONTINUOUS
 70
     0
  3
Solid line
 72
    65
 73
     0
 40
0.0
  0
LTYPE
  5
7A
330
5
100
AcDbSymbolTableRecord
100
AcDbLinetypeTableRecord
  2
PHL_THICK
 70
     0
  3
THICK
 72
    65
 73
     0
 40
0.0
  0
ENDTAB
  0
TABLE
  2
LAYER
  5
2
330
0
100
AcDbSymbolTable
 70
     2
  0
LAYER
  5
10
330
2
100
AcDbSymbolTableRecord
100
AcDbLayerTableRecord
  2
0
 70
     0
 62
     7
  6
CONTINUOUS
  0
LAYER
  5
79
330
2
100
AcDbSymbolTableRecord
100
AcDbLayerTableRecord
  2
PROJECTION
 70
     0
 62
     7
  6
CONTINUOUS
  0
ENDTAB
  0
TABLE
  2
STYLE
  5
3
330
0
100
AcDbSymbolTable
 70
     1
  0
STYLE
  5
11
330
3
100
AcDbSymbolTableRecord
100
AcDbTextStyleTableRecord
  2
STANDARD
 70
     0
 40
0.0
 41
1.0
 50
0.0
 71
     0
 42
2.5
  3
txt
  4

  0
ENDTAB
  0
TABLE
  2
VIEW
  5
6
330
0
100
AcDbSymbolTable
 70
     0
  0
ENDTAB
  0
TABLE
  2
UCS
  5
7
330
0
100
AcDbSymbolTable
 70
     0
  0
ENDTAB
  0
TABLE
  2
APPID
  5
9
330
0
100
AcDbSymbolTable
 70
     3
  0
APPID
  5
12
330
9
100
AcDbSymbolTableRecord
100
AcDbRegAppTableRecord
  2
ACAD
 70
     0
  0
APPID
  5
6E
330
9
100
AcDbSymbolTableRecord
100
AcDbRegAppTableRecord
  2
CCLAB
 70
     0
  0
APPID
  5
20A
330
9
100
AcDbSymbolTableRecord
100
AcDbRegAppTableRecord
  2
ACAD_MLEADERVER
 70
     0
  0
ENDTAB
  0
TABLE
  2
DIMSTYLE
  5
A
330
0
100
AcDbSymbolTable
 70
     1
  0
DIMSTYLE
105
27
330
A
100
AcDbSymbolTableRecord
100
AcDbDimStyleTableRecord
  2
ISO-25
 70
     0
  3

  4

  5

  6

  7

 40
1.0
 41
2.5
 42
0.625
 43
3.75
 44
1.25
 45
0.0
 46
0.0
 47
0.0
 48
0.0
140
2.5
141
2.5
142
0.0
143
0.03937007874016
144
1.0
145
0.0
146
1.0
147
0.625
 71
     0
 72
     0
 73
     0
 74
     0
 75
     0
 76
     0
 77
     1
 78
     8
170
     0
171
     3
172
     1
173
     0
174
     0
175
     0
176
     0
177
     0
178
     0
270
     2
271
     2
272
     2
273
     2
274
     3
340
11
275
     0
280
     0
281
     0
282
     0
283
     0
284
     8
285
     0
286
     0
287
     3
288
     0
  0
ENDTAB
  0
TABLE
  2
BLOCK_RECORD
  5
1
330
0
100
AcDbSymbolTable
 70
     4
  0
BLOCK_RECORD
  5
1F
330
1
100
AcDbSymbolTableRecord
100
AcDbBlockTableRecord
  2
*MODEL_SPACE
  0
BLOCK_RECORD
  5
1B
330
1
100
AcDbSymbolTableRecord
100
AcDbBlockTableRecord
  2
*PAPER_SPACE
  0
ENDTAB
  0
ENDSEC
  0
SECTION
  2
BLOCKS
  0
BLOCK
  5
20
330
1F
100
AcDbEntity
  8
0
100
AcDbBlockBegin
  2
*MODEL_SPACE
 70
     0
 10
0.0
 20
0.0
 30
0.0
  3
*MODEL_SPACE
  1

  0
ENDBLK
  5
21
330
1F
100
AcDbEntity
  8
0
100
AcDbBlockEnd
  0
BLOCK
  5
1C
330
1B
100
AcDbEntity
 67
     1
  8
0
100
AcDbBlockBegin
  2
*PAPER_SPACE
 70
     0
 10
0.0
 20
0.0
 30
0.0
  3
*PAPER_SPACE
  1

  0
ENDBLK
  5
1D
330
1B
100
AcDbEntity
 67
     1
  8
0
100
AcDbBlockEnd
  0
ENDSEC
  0
SECTION
  2
ENTITIES
  0
LINE
  5
128
330
1F
100
AcDbEntity
  8
PROJECTION
  6
PHL_THICK
 62
     7
100
AcDbLine
 10
11.227497
 20
-23.154598
 30
0.0
 11
11.220311
 21
-22.82082
 31
0.0
  0
LINE
  5
129
330
1F
100
AcDbEntity
  8
PROJECTION
  6
PHL_THICK
 62
     7
100
AcDbLine
 10
54.978207
 20
14.188927
 30
0.0
 11
54.97102
 21
14.522705
 31
0.0
  0
LINE
  5
12A
330
1F
100
AcDbEntity
  8
PROJECTION
  6
PHL_THICK
 62
     7
100
AcDbLine
 10
54.97102
 20
14.522705
 30
0.0
 11
54.949558
 21
14.855837
 31
0.0
  0
LINE
  5
12B
330
1F
100
AcDbEntity
  8
PROJECTION
  6
PHL_THICK
 62
     7
100
AcDbLine
 10
11.248962
 20
-23.48773
 30
0.0
 11
11.227497
 21
-23.154598
 31
0.0
  0
LINE
  5
12C
330
1F
100
AcDbEntity
  8
PROJECTION
  6
PHL_THICK
 62
     7
100
AcDbLine
 10
11.284574
 20
-23.819649
 30
0.0
 11
11.248962
 21
-23.48773
 31
0.0
  0
LINE
  5
12D
330
1F
100
AcDbEntity
  8
PROJECTION
  6
PHL_THICK
 62
     7
100
AcDbLine
 10
54.949558
 20
14.855837
 30
0.0
 11
54.913944
 21
15.187756
 31
0.0
  0
LINE
  5
12E
330
1F
100
AcDbEntity
  8
PROJECTION
  6
PHL_THICK
 62
     7
100
AcDbLine
 10
11.334198
 20
-24.149786
 30
0.0
 11
11.284574
 21
-23.819649
 31
0.0
  0
LINE
  5
12F
330
1F
100
AcDbEntity
  8
PROJECTION
  6
PHL_THICK
 62
     7
100
AcDbLine
 10
54.913944
 20
15.187756
 30
0.0
 11
54.864319
 21
15.517893
 31
0.0
  0
LINE
  5
130
330
1F
100
AcDbEntity
  8
PROJECTION
  6
PHL_THICK
 62
     7
100
AcDbLine
 10
54.864319
 20
15.517893
 30
0.0
 11
54.800816
 21
15.845675
 31
0.0
  0
LINE
  5
131
330
1F
100
AcDbEntity
  8
PROJECTION
  6
PHL_THICK
 62
     7
100
AcDbLine
 10
11.397702
 20
-24.477568
 30
0.0
 11
11.334198
 21
-24.149786
 31
0.0
  0
LINE
  5
132
330
1F
100
AcDbEntity
  8
PROJECTION
  6
PHL_THICK
 62
     7
100
AcDbLine
 10
11.474939
 20
-24.802382
 30
0.0
 11
11.397702
 21
-24.477568
 31
0.0
  0
LINE
  5
133
330
1F
100
AcDbEntity
  8
PROJECTION
  6
PHL_THICK
 62
     7
100
AcDbLine
 10
54.800816
 20
15.845675
 30
0.0
 11
54.723579
 21
16.170488
 31
0.0
  0
LINE
  5
134
330
1F
100
AcDbEntity
  8
PROJECTION
  6
PHL_THICK
 62
     7
100
AcDbLine
 10
11.565767
 20
-25.12365
 30
0.0
 11
11.474939
 21
-24.802382
 31
0.0
  0
LINE
  5
135
330
1F
100
AcDbEntity
  8
PROJECTION
  6
PHL_THICK
 62
     7
100
AcDbLine
 10
54.723579
 20
16.170488
 30
0.0
 11
54.632751
 21
16.491756
 31
0.0
  0
LINE
  5
136
330
1F
100
AcDbEntity
  8
PROJECTION
  6
PHL_THICK
 62
     7
100
AcDbLine
 10
11.670044
 20
-25.440805
 30
0.0
 11
11.565767
 21
-25.12365
 31
0.0
  0
LINE
  5
137
330
1F
100
AcDbEntity
  8
PROJECTION
  6
PHL_THICK
 62
     7
100
AcDbLine
 10
54.632751
 20
16.491756
 30
0.0
 11
54.528473
 21
16.808912
 31
0.0
  0
LINE
  5
138
330
1F
100
AcDbEntity
  8
PROJECTION
  6
PHL_THICK
 62
     7
100
AcDbLine
 10
54.528473
 20
16.808912
 30
0.0
 11
54.410889
 21
17.121391
 31
0.0
  0
LINE
  5
139
330
1F
100
AcDbEntity
  8
PROJECTION
  6
PHL_THICK
 62
     7
100
AcDbLine
 10
11.787629
 20
-25.753284
 30
0.0
 11
11.670044
 21
-25.440805
 31
0.0
  0
LINE
  5
13A
330
1F
100
AcDbEntity
  8
PROJECTION
  6
PHL_THICK
 62
     7
100
AcDbLine
 10
11.91827
 20
-26.060215
 30
0.0
 11
11.787629
 21
-25.753284
 31
0.0
  0
LINE
  5
13B
330
1F
100
AcDbEntity
  8
PROJECTION
  6
PHL_THICK
 62
     7
100
AcDbLine
 10
54.410889
 20
17.121391
 30
0.0
 11
54.280247
 21
17.428322
 31
0.0
  0
LINE
  5
13C
330
1F
100
AcDbEntity
  8
PROJECTION
  6
PHL_THICK
 62
     7
100
AcDbLine
 10
12.061581
 20
-26.360703
 30
0.0
 11
11.91827
 21
-26.060215
 31
0.0
  0
LINE
  5
13D
330
1F
100
AcDbEntity
  8
PROJECTION
  6
PHL_THICK
 62
     7
100
AcDbLine
 10
54.280247
 20
17.428322
 30
0.0
 11
54.136936
 21
17.728809
 31
0.0
  0
LINE
  5
13E
330
1F
100
AcDbEntity
  8
PROJECTION
  6
PHL_THICK
 62
     7
100
AcDbLine
 10
54.136936
 20
17.728809
 30
0.0
 11
53.981205
 21
18.022564
 31
0.0
  0
LINE
  5
13F
330
1F
100
AcDbEntity
  8
PROJECTION
  6
PHL_THICK
 62
     7
100
AcDbLine
 10
12.217314
 20
-26.654457
 30
0.0
 11
12.061581
 21
-26.360703
 31
0.0
  0
LINE
  5
140
330
1F
100
AcDbEntity
  8
PROJECTION
  6
PHL_THICK
 62
     7
100
AcDbLine
 10
12.385221
 20
-26.941196
 30
0.0
 11
12.217314
 21
-26.654457
 31
0.0
  0
LINE
  5
141
330
1F
100
AcDbEntity
  8
PROJECTION
  6
PHL_THICK
 62
     7
100
AcDbLine
 10
53.981205
 20
18.022564
 30
0.0
 11
53.813297
 21
18.309303
 31
0.0
  0
LINE
  5
142
330
1F
100
AcDbEntity
  8
PROJECTION
  6
PHL_THICK
 62
     7
100
AcDbLine
 10
12.5664
 20
-27.222641
 30
0.0
 11
12.385221
 21
-26.941196
 31
0.0
  0
LINE
  5
143
330
1F
100
AcDbEntity
  8
PROJECTION
  6
PHL_THICK
 62
     7
100
AcDbLine
 10
53.813297
 20
18.309303
 30
0.0
 11
53.632118
 21
18.590748
 31
0.0
  0
LINE
  5
144
330
1F
100
AcDbEntity
  8
PROJECTION
  6
PHL_THICK
 62
     7
100
AcDbLine
 10
53.632118
 20
18.590748
 30
0.0
 11
53.410484
 21
18.90307
 31
0.0
  0
LINE
  5
145
330
1F
100
AcDbEntity
  8
PROJECTION
  6
PHL_THICK
 62
     7
100
AcDbLine
 10
12.788035
 20
-27.534964
 30
0.0
 11
12.5664
 21
-27.222641
 31
0.0
  0
LINE
  5
146
330
1F
100
AcDbEntity
  8
PROJECTION
  6
PHL_THICK
 62
     7
100
AcDbLine
 10
13.063256
 20
-27.882824
 30
0.0
 11
12.788035
 21
-27.534964
 31
0.0
  0
LINE
  5
147
330
1F
100
AcDbEntity
  8
PROJECTION
  6
PHL_THICK
 62
     7
100
AcDbLine
 10
53.410484
 20
18.90307
 30
0.0
 11
53.135262
 21
19.250931
 31
0.0
  0
LINE
  5
148
330
1F
100
AcDbEntity
  8
PROJECTION
  6
PHL_THICK
 62
     7
100
AcDbLine
 10
13.395187
 20
-28.254499
 30
0.0
 11
13.063256
 21
-27.882824
 31
0.0
  0
LINE
  5
149
330
1F
100
AcDbEntity
  8
PROJECTION
  6
PHL_THICK
 62
     7
100
AcDbLine
 10
53.135262
 20
19.250931
 30
0.0
 11
52.803329
 21
19.622606
 31
0.0
  0
LINE
  5
14A
330
1F
100
AcDbEntity
  8
PROJECTION
  6
PHL_THICK
 62
     7
100
AcDbLine
 10
52.803329
 20
19.622606
 30
0.0
 11
52.411564
 21
20.006378
 31
0.0
  0
LINE
  5
14B
330
1F
100
AcDbEntity
  8
PROJECTION
  6
PHL_THICK
 62
     7
100
AcDbLine
 10
13.786956
 20
-28.638271
 30
0.0
 11
13.395187
 21
-28.254499
 31
0.0
  0
LINE
  5
14C
330
1F
100
AcDbEntity
  8
PROJECTION
  6
PHL_THICK
 62
     7
100
AcDbLine
 10
14.241687
 20
-29.022417
 30
0.0
 11
13.786956
 21
-28.638271
 31
0.0
  0
LINE
  5
14D
330
1F
100
AcDbEntity
  8
PROJECTION
  6
PHL_THICK
 62
     7
100
AcDbLine
 10
52.411564
 20
20.006378
 30
0.0
 11
51.956833
 21
20.390524
 31
0.0
  0
LINE
  5
14E
330
1F
100
AcDbEntity
  8
PROJECTION
  6
PHL_THICK
 62
     7
100
AcDbLine
 10
14.761914
 20
-29.394844
 30
0.0
 11
14.241687
 21
-29.022417
 31
0.0
  0
LINE
  5
14F
330
1F
100
AcDbEntity
  8
PROJECTION
  6
PHL_THICK
 62
     7
100
AcDbLine
 10
51.956833
 20
20.390524
 30
0.0
 11
51.436604
 21
20.762951
 31
0.0
  0
LINE
  5
150
330
1F
100
AcDbEntity
  8
PROJECTION
  6
PHL_THICK
 62
     7
100
AcDbLine
 10
15.324398
 20
-29.730637
 30
0.0
 11
14.761914
 21
-29.394844
 31
0.0
  0
LINE
  5
151
330
1F
100
AcDbEntity
  8
PROJECTION
  6
PHL_THICK
 62
     7
100
AcDbLine
 10
51.436604
 20
20.762951
 30
0.0
 11
50.874119
 21
21.098743
 31
0.0
  0
LINE
  5
152
330
1F
100
AcDbEntity
  8
PROJECTION
  6
PHL_THICK
 62
     7
100
AcDbLine
 10
15.912732
 20
-30.018929
 30
0.0
 11
15.324398
 21
-29.730637
 31
0.0
  0
LINE
  5
153
330
1F
100
AcDbEntity
  8
PROJECTION
  6
PHL_THICK
 62
     7
100
AcDbLine
 10
50.874119
 20
21.098743
 30
0.0
 11
50.285786
 21
21.387035
 31
0.0
  0
LINE
  5
154
330
1F
100
AcDbEntity
  8
PROJECTION
  6
PHL_THICK
 62
     7
100
AcDbLine
 10
16.522675
 20
-30.258205
 30
0.0
 11
15.912732
 21
-30.018929
 31
0.0
  0
LINE
  5
155
330
1F
100
AcDbEntity
  8
PROJECTION
  6
PHL_THICK
 62
     7
100
AcDbLine
 10
50.285786
 20
21.387035
 30
0.0
 11
49.675842
 21
21.626312
 31
0.0
  0
LINE
  5
156
330
1F
100
AcDbEntity
  8
PROJECTION
  6
PHL_THICK
 62
     7
100
AcDbLine
 10
17.15
 20
-30.446955
 30
0.0
 11
16.522675
 21
-30.258205
 31
0.0
  0
LINE
  5
157
330
1F
100
AcDbEntity
  8
PROJECTION
  6
PHL_THICK
 62
     7
100
AcDbLine
 10
49.675842
 20
21.626312
 30
0.0
 11
49.048519
 21
21.815062
 31
0.0
  0
LINE
  5
158
330
1F
100
AcDbEntity
  8
PROJECTION
  6
PHL_THICK
 62
     7
100
AcDbLine
 10
17.790535
 20
-30.583672
 30
0.0
 11
17.15
 21
-30.446955
 31
0.0
  0
LINE
  5
159
330
1F
100
AcDbEntity
  8
PROJECTION
  6
PHL_THICK
 62
     7
100
AcDbLine
 10
49.048519
 20
21.815062
 30
0.0
 11
48.407982
 21
21.951778
 31
0.0
  0
LINE
  5
15A
330
1F
100
AcDbEntity
  8
PROJECTION
  6
PHL_THICK
 62
     7
100
AcDbLine
 10
48.407982
 20
21.951778
 30
0.0
 11
47.758446
 21
22.034935
 31
0.0
  0
LINE
  5
15B
330
1F
100
AcDbEntity
  8
PROJECTION
  6
PHL_THICK
 62
     7
100
AcDbLine
 10
18.440071
 20
-30.666828
 30
0.0
 11
17.790535
 21
-30.583672
 31
0.0
  0
LINE
  5
15C
330
1F
100
AcDbEntity
  8
PROJECTION
  6
PHL_THICK
 62
     7
100
AcDbLine
 10
19.094385
 20
-30.694895
 30
0.0
 11
18.440071
 21
-30.666828
 31
0.0
  0
LINE
  5
15D
330
1F
100
AcDbEntity
  8
PROJECTION
  6
PHL_THICK
 62
     7
100
AcDbLine
 10
47.758446
 20
22.034935
 30
0.0
 11
47.104134
 21
22.063002
 31
0.0
  0
LINE
  5
15E
330
1F
100
AcDbEntity
  8
PROJECTION
  6
PHL_THICK
 62
     7
100
AcDbLine
 10
-2.424552
 20
-64.315948
 30
0.0
 11
-1.900741
 21
-64.315948
 31
0.0
  0
LINE
  5
15F
330
1F
100
AcDbEntity
  8
PROJECTION
  6
PHL_THICK
 62
     7
100
AcDbLine
 10
68.099258
 20
-64.315948
 30
0.0
 11
68.62307
 21
-64.315948
 31
0.0
  0
LINE
  5
160
330
1F
100
AcDbEntity
  8
PROJECTION
  6
PHL_THICK
 62
     7
100
AcDbLine
 10
19.094385
 20
-30.815947
 30
0.0
 11
47.104134
 21
-30.815947
 31
0.0
  0
LINE
  5
161
330
1F
100
AcDbEntity
  8
PROJECTION
  6
PHL_THICK
 62
     7
100
AcDbLine
 10
19.094385
 20
-30.694895
 30
0.0
 11
47.104134
 21
-30.694895
 31
0.0
  0
LINE
  5
162
330
1F
100
AcDbEntity
  8
PROJECTION
  6
PHL_THICK
 62
     7
100
AcDbLine
 10
19.099258
 20
-30.315947
 30
0.0
 11
47.099258
 21
-30.315947
 31
0.0
  0
LINE
  5
163
330
1F
100
AcDbEntity
  8
PROJECTION
  6
PHL_THICK
 62
     7
100
AcDbLine
 10
54.978207
 20
-22.82082
 30
0.0
 11
55.099258
 21
-22.82082
 31
0.0
  0
LINE
  5
164
330
1F
100
AcDbEntity
  8
PROJECTION
  6
PHL_THICK
 62
     7
100
AcDbLine
 10
11.099259
 20
-22.82082
 30
0.0
 11
11.119434
 21
-22.82082
 31
0.0
  0
LINE
  5
165
330
1F
100
AcDbEntity
  8
PROJECTION
  6
PHL_THICK
 62
     7
100
AcDbLine
 10
11.119434
 20
-22.82082
 30
0.0
 11
11.13961
 21
-22.82082
 31
0.0
  0
LINE
  5
166
330
1F
100
AcDbEntity
  8
PROJECTION
  6
PHL_THICK
 62
     7
100
AcDbLine
 10
11.13961
 20
-22.82082
 30
0.0
 11
11.159785
 21
-22.82082
 31
0.0
  0
LINE
  5
167
330
1F
100
AcDbEntity
  8
PROJECTION
  6
PHL_THICK
 62
     7
100
AcDbLine
 10
11.159785
 20
-22.82082
 30
0.0
 11
11.179961
 21
-22.82082
 31
0.0
  0
LINE
  5
168
330
1F
100
AcDbEntity
  8
PROJECTION
  6
PHL_THICK
 62
     7
100
AcDbLine
 10
11.179961
 20
-22.82082
 30
0.0
 11
11.200136
 21
-22.82082
 31
0.0
  0
LINE
  5
169
330
1F
100
AcDbEntity
  8
PROJECTION
  6
PHL_THICK
 62
     7
100
AcDbLine
 10
11.200136
 20
-22.82082
 30
0.0
 11
11.220311
 21
-22.82082
 31
0.0
  0
LINE
  5
16A
330
1F
100
AcDbEntity
  8
PROJECTION
  6
PHL_THICK
 62
     7
100
AcDbLine
 10
11.220311
 20
-22.815947
 30
0.0
 11
11.599261
 21
-22.815947
 31
0.0
  0
LINE
  5
16B
330
1F
100
AcDbEntity
  8
PROJECTION
  6
PHL_THICK
 62
     7
100
AcDbLine
 10
54.599262
 20
-22.815947
 30
0.0
 11
54.978207
 21
-22.815947
 31
0.0
  0
LINE
  5
16C
330
1F
100
AcDbEntity
  8
PROJECTION
  6
PHL_THICK
 62
     7
100
AcDbLine
 10
54.599262
 20
14.184053
 30
0.0
 11
54.978207
 21
14.184053
 31
0.0
  0
LINE
  5
16D
330
1F
100
AcDbEntity
  8
PROJECTION
  6
PHL_THICK
 62
     7
100
AcDbLine
 10
11.220311
 20
14.184053
 30
0.0
 11
11.599261
 21
14.184053
 31
0.0
  0
LINE
  5
16E
330
1F
100
AcDbEntity
  8
PROJECTION
  6
PHL_THICK
 62
     7
100
AcDbLine
 10
54.978207
 20
14.188927
 30
0.0
 11
55.099258
 21
14.188927
 31
0.0
  0
LINE
  5
16F
330
1F
100
AcDbEntity
  8
PROJECTION
  6
PHL_THICK
 62
     7
100
AcDbLine
 10
11.099259
 20
14.188927
 30
0.0
 11
11.220311
 21
14.188927
 31
0.0
  0
LINE
  5
170
330
1F
100
AcDbEntity
  8
PROJECTION
  6
PHL_THICK
 62
     7
100
AcDbLine
 10
19.099258
 20
21.684053
 30
0.0
 11
47.099258
 21
21.684053
 31
0.0
  0
LINE
  5
171
330
1F
100
AcDbEntity
  8
PROJECTION
  6
PHL_THICK
 62
     7
100
AcDbLine
 10
19.094385
 20
22.063002
 30
0.0
 11
47.104134
 21
22.063002
 31
0.0
  0
LINE
  5
172
330
1F
100
AcDbEntity
  8
PROJECTION
  6
PHL_THICK
 62
     7
100
AcDbLine
 10
19.094385
 20
22.184053
 30
0.0
 11
47.104134
 21
22.184053
 31
0.0
  0
LINE
  5
173
330
1F
100
AcDbEntity
  8
PROJECTION
  6
PHL_THICK
 62
     7
100
AcDbLine
 10
-2.424552
 20
55.684052
 30
0.0
 11
-1.900741
 21
55.684052
 31
0.0
  0
LINE
  5
174
330
1F
100
AcDbEntity
  8
PROJECTION
  6
PHL_THICK
 62
     7
100
AcDbLine
 10
68.099258
 20
55.684052
 30
0.0
 11
68.62307
 21
55.684052
 31
0.0
  0
LINE
  5
175
330
1F
100
AcDbEntity
  8
PROJECTION
  6
PHL_THICK
 62
     7
100
AcDbLine
 10
47.104134
 20
-30.694895
 30
0.0
 11
47.416641
 21
-30.688473
 31
0.0
  0
LINE
  5
176
330
1F
100
AcDbEntity
  8
PROJECTION
  6
PHL_THICK
 62
     7
100
AcDbLine
 10
18.760607
 20
22.055815
 30
0.0
 11
19.094385
 21
22.063002
 31
0.0
  0
LINE
  5
177
330
1F
100
AcDbEntity
  8
PROJECTION
  6
PHL_THICK
 62
     7
100
AcDbLine
 10
47.416641
 20
-30.688473
 30
0.0
 11
47.728565
 21
-30.669329
 31
0.0
  0
LINE
  5
178
330
1F
100
AcDbEntity
  8
PROJECTION
  6
PHL_THICK
 62
     7
100
AcDbLine
 10
18.427475
 20
22.034351
 30
0.0
 11
18.760607
 21
22.055815
 31
0.0
  0
LINE
  5
179
330
1F
100
AcDbEntity
  8
PROJECTION
  6
PHL_THICK
 62
     7
100
AcDbLine
 10
47.728565
 20
-30.669329
 30
0.0
 11
48.039444
 21
-30.637627
 31
0.0
  0
LINE
  5
17A
330
1F
100
AcDbEntity
  8
PROJECTION
  6
PHL_THICK
 62
     7
100
AcDbLine
 10
18.095558
 20
21.998739
 30
0.0
 11
18.427475
 21
22.034351
 31
0.0
  0
LINE
  5
17B
330
1F
100
AcDbEntity
  8
PROJECTION
  6
PHL_THICK
 62
     7
100
AcDbLine
 10
48.039444
 20
-30.637627
 30
0.0
 11
48.34882
 21
-30.593536
 31
0.0
  0
LINE
  5
17C
330
1F
100
AcDbEntity
  8
PROJECTION
  6
PHL_THICK
 62
     7
100
AcDbLine
 10
17.765421
 20
21.949114
 30
0.0
 11
18.095558
 21
21.998739
 31
0.0
  0
LINE
  5
17D
330
1F
100
AcDbEntity
  8
PROJECTION
  6
PHL_THICK
 62
     7
100
AcDbLine
 10
48.34882
 20
-30.593536
 30
0.0
 11
48.656231
 21
-30.537222
 31
0.0
  0
LINE
  5
17E
330
1F
100
AcDbEntity
  8
PROJECTION
  6
PHL_THICK
 62
     7
100
AcDbLine
 10
17.437637
 20
21.885611
 30
0.0
 11
17.765421
 21
21.949114
 31
0.0
  0
LINE
  5
17F
330
1F
100
AcDbEntity
  8
PROJECTION
  6
PHL_THICK
 62
     7
100
AcDbLine
 10
48.656231
 20
-30.537222
 30
0.0
 11
48.961224
 21
-30.468851
 31
0.0
  0
LINE
  5
180
330
1F
100
AcDbEntity
  8
PROJECTION
  6
PHL_THICK
 62
     7
100
AcDbLine
 10
17.112825
 20
21.808372
 30
0.0
 11
17.437637
 21
21.885611
 31
0.0
  0
LINE
  5
181
330
1F
100
AcDbEntity
  8
PROJECTION
  6
PHL_THICK
 62
     7
100
AcDbLine
 10
48.961224
 20
-30.468851
 30
0.0
 11
49.26334
 21
-30.388588
 31
0.0
  0
LINE
  5
182
330
1F
100
AcDbEntity
  8
PROJECTION
  6
PHL_THICK
 62
     7
100
AcDbLine
 10
16.791557
 20
21.717546
 30
0.0
 11
17.112825
 21
21.808372
 31
0.0
  0
LINE
  5
183
330
1F
100
AcDbEntity
  8
PROJECTION
  6
PHL_THICK
 62
     7
100
AcDbLine
 10
49.26334
 20
-30.388588
 30
0.0
 11
49.562119
 21
-30.296602
 31
0.0
  0
LINE
  5
184
330
1F
100
AcDbEntity
  8
PROJECTION
  6
PHL_THICK
 62
     7
100
AcDbLine
 10
16.4744
 20
21.613268
 30
0.0
 11
16.791557
 21
21.717546
 31
0.0
  0
LINE
  5
185
330
1F
100
AcDbEntity
  8
PROJECTION
  6
PHL_THICK
 62
     7
100
AcDbLine
 10
49.562119
 20
-30.296602
 30
0.0
 11
49.857098
 21
-30.193056
 31
0.0
  0
LINE
  5
186
330
1F
100
AcDbEntity
  8
PROJECTION
  6
PHL_THICK
 62
     7
100
AcDbLine
 10
16.161921
 20
21.495684
 30
0.0
 11
16.4744
 21
21.613268
 31
0.0
  0
LINE
  5
187
330
1F
100
AcDbEntity
  8
PROJECTION
  6
PHL_THICK
 62
     7
100
AcDbLine
 10
49.857098
 20
-30.193056
 30
0.0
 11
50.155022
 21
-30.075127
 31
0.0
  0
LINE
  5
188
330
1F
100
AcDbEntity
  8
PROJECTION
  6
PHL_THICK
 62
     7
100
AcDbLine
 10
15.85499
 20
21.365042
 30
0.0
 11
16.161921
 21
21.495684
 31
0.0
  0
LINE
  5
189
330
1F
100
AcDbEntity
  8
PROJECTION
  6
PHL_THICK
 62
     7
100
AcDbLine
 10
50.155022
 20
-30.075127
 30
0.0
 11
50.487492
 21
-29.926865
 31
0.0
  0
LINE
  5
18A
330
1F
100
AcDbEntity
  8
PROJECTION
  6
PHL_THICK
 62
     7
100
AcDbLine
 10
15.554502
 20
21.221731
 30
0.0
 11
15.85499
 21
21.365042
 31
0.0
  0
LINE
  5
18B
330
1F
100
AcDbEntity
  8
PROJECTION
  6
PHL_THICK
 62
     7
100
AcDbLine
 10
50.487492
 20
-29.926865
 30
0.0
 11
50.852127
 21
-29.742592
 31
0.0
  0
LINE
  5
18C
330
1F
100
AcDbEntity
  8
PROJECTION
  6
PHL_THICK
 62
     7
100
AcDbLine
 10
15.260749
 20
21.066
 30
0.0
 11
15.554502
 21
21.221731
 31
0.0
  0
LINE
  5
18D
330
1F
100
AcDbEntity
  8
PROJECTION
  6
PHL_THICK
 62
     7
100
AcDbLine
 10
50.852127
 20
-29.742592
 30
0.0
 11
51.24173
 21
-29.518402
 31
0.0
  0
LINE
  5
18E
330
1F
100
AcDbEntity
  8
PROJECTION
  6
PHL_THICK
 62
     7
100
AcDbLine
 10
14.974009
 20
20.898092
 30
0.0
 11
15.260749
 21
21.066
 31
0.0
  0
LINE
  5
18F
330
1F
100
AcDbEntity
  8
PROJECTION
  6
PHL_THICK
 62
     7
100
AcDbLine
 10
14.692566
 20
20.716913
 30
0.0
 11
14.974009
 21
20.898092
 31
0.0
  0
LINE
  5
190
330
1F
100
AcDbEntity
  8
PROJECTION
  6
PHL_THICK
 62
     7
100
AcDbLine
 10
51.24173
 20
-29.518402
 30
0.0
 11
51.649101
 21
-29.250395
 31
0.0
  0
LINE
  5
191
330
1F
100
AcDbEntity
  8
PROJECTION
  6
PHL_THICK
 62
     7
100
AcDbLine
 10
14.380241
 20
20.495277
 30
0.0
 11
14.692566
 21
20.716913
 31
0.0
  0
LINE
  5
192
330
1F
100
AcDbEntity
  8
PROJECTION
  6
PHL_THICK
 62
     7
100
AcDbLine
 10
51.649101
 20
-29.250395
 30
0.0
 11
52.067043
 21
-28.934668
 31
0.0
  0
LINE
  5
193
330
1F
100
AcDbEntity
  8
PROJECTION
  6
PHL_THICK
 62
     7
100
AcDbLine
 10
14.032382
 20
20.220057
 30
0.0
 11
14.380241
 21
20.495277
 31
0.0
  0
LINE
  5
194
330
1F
100
AcDbEntity
  8
PROJECTION
  6
PHL_THICK
 62
     7
100
AcDbLine
 10
52.067043
 20
-28.934668
 30
0.0
 11
52.488361
 21
-28.567316
 31
0.0
  0
LINE
  5
195
330
1F
100
AcDbEntity
  8
PROJECTION
  6
PHL_THICK
 62
     7
100
AcDbLine
 10
13.660707
 20
19.888124
 30
0.0
 11
14.032382
 21
20.220057
 31
0.0
  0
LINE
  5
196
330
1F
100
AcDbEntity
  8
PROJECTION
  6
PHL_THICK
 62
     7
100
AcDbLine
 10
52.488361
 20
-28.567316
 30
0.0
 11
52.899448
 21
-28.151667
 31
0.0
  0
LINE
  5
197
330
1F
100
AcDbEntity
  8
PROJECTION
  6
PHL_THICK
 62
     7
100
AcDbLine
 10
13.276936
 20
19.496357
 30
0.0
 11
13.660707
 21
19.888124
 31
0.0
  0
LINE
  5
198
330
1F
100
AcDbEntity
  8
PROJECTION
  6
PHL_THICK
 62
     7
100
AcDbLine
 10
52.899448
 20
-28.151667
 30
0.0
 11
53.279358
 21
-27.705633
 31
0.0
  0
LINE
  5
199
330
1F
100
AcDbEntity
  8
PROJECTION
  6
PHL_THICK
 62
     7
100
AcDbLine
 10
12.892789
 20
19.041626
 30
0.0
 11
13.276936
 21
19.496357
 31
0.0
  0
LINE
  5
19A
330
1F
100
AcDbEntity
  8
PROJECTION
  6
PHL_THICK
 62
     7
100
AcDbLine
 10
53.279358
 20
-27.705633
 30
0.0
 11
53.625259
 21
-27.232794
 31
0.0
  0
LINE
  5
19B
330
1F
100
AcDbEntity
  8
PROJECTION
  6
PHL_THICK
 62
     7
100
AcDbLine
 10
12.520361
 20
18.521399
 30
0.0
 11
12.892789
 21
19.041626
 31
0.0
  0
LINE
  5
19C
330
1F
100
AcDbEntity
  8
PROJECTION
  6
PHL_THICK
 62
     7
100
AcDbLine
 10
53.625259
 20
-27.232794
 30
0.0
 11
53.935284
 21
-26.735706
 31
0.0
  0
LINE
  5
19D
330
1F
100
AcDbEntity
  8
PROJECTION
  6
PHL_THICK
 62
     7
100
AcDbLine
 10
12.184569
 20
17.958916
 30
0.0
 11
12.520361
 21
18.521399
 31
0.0
  0
LINE
  5
19E
330
1F
100
AcDbEntity
  8
PROJECTION
  6
PHL_THICK
 62
     7
100
AcDbLine
 10
53.935284
 20
-26.735706
 30
0.0
 11
54.207489
 21
-26.21697
 31
0.0
  0
LINE
  5
19F
330
1F
100
AcDbEntity
  8
PROJECTION
  6
PHL_THICK
 62
     7
100
AcDbLine
 10
11.896277
 20
17.370581
 30
0.0
 11
12.184569
 21
17.958916
 31
0.0
  0
LINE
  5
1A0
330
1F
100
AcDbEntity
  8
PROJECTION
  6
PHL_THICK
 62
     7
100
AcDbLine
 10
54.207489
 20
-26.21697
 30
0.0
 11
54.439999
 21
-25.679565
 31
0.0
  0
LINE
  5
1A1
330
1F
100
AcDbEntity
  8
PROJECTION
  6
PHL_THICK
 62
     7
100
AcDbLine
 10
11.657001
 20
16.760637
 30
0.0
 11
11.896277
 21
17.370581
 31
0.0
  0
LINE
  5
1A2
330
1F
100
AcDbEntity
  8
PROJECTION
  6
PHL_THICK
 62
     7
100
AcDbLine
 10
54.439999
 20
-25.679565
 30
0.0
 11
54.631836
 21
-25.126642
 31
0.0
  0
LINE
  5
1A3
330
1F
100
AcDbEntity
  8
PROJECTION
  6
PHL_THICK
 62
     7
100
AcDbLine
 10
11.468251
 20
16.133314
 30
0.0
 11
11.657001
 21
16.760637
 31
0.0
  0
LINE
  5
1A4
330
1F
100
AcDbEntity
  8
PROJECTION
  6
PHL_THICK
 62
     7
100
AcDbLine
 10
54.631836
 20
-25.126642
 30
0.0
 11
54.782291
 21
-24.561258
 31
0.0
  0
LINE
  5
1A5
330
1F
100
AcDbEntity
  8
PROJECTION
  6
PHL_THICK
 62
     7
100
AcDbLine
 10
11.331534
 20
15.492778
 30
0.0
 11
11.468251
 21
16.133314
 31
0.0
  0
LINE
  5
1A6
330
1F
100
AcDbEntity
  8
PROJECTION
  6
PHL_THICK
 62
     7
100
AcDbLine
 10
54.782291
 20
-24.561258
 30
0.0
 11
54.890652
 21
-23.986465
 31
0.0
  0
LINE
  5
1A7
330
1F
100
AcDbEntity
  8
PROJECTION
  6
PHL_THICK
 62
     7
100
AcDbLine
 10
11.248378
 20
14.843242
 30
0.0
 11
11.331534
 21
15.492778
 31
0.0
  0
LINE
  5
1A8
330
1F
100
AcDbEntity
  8
PROJECTION
  6
PHL_THICK
 62
     7
100
AcDbLine
 10
54.890652
 20
-23.986465
 30
0.0
 11
54.956196
 21
-23.405302
 31
0.0
  0
LINE
  5
1A9
330
1F
100
AcDbEntity
  8
PROJECTION
  6
PHL_THICK
 62
     7
100
AcDbLine
 10
11.220311
 20
14.188927
 30
0.0
 11
11.248378
 21
14.843242
 31
0.0
  0
LINE
  5
1AA
330
1F
100
AcDbEntity
  8
PROJECTION
  6
PHL_THICK
 62
     7
100
AcDbLine
 10
54.956196
 20
-23.405302
 30
0.0
 11
54.978207
 21
-22.82082
 31
0.0
  0
LINE
  5
1AB
330
1F
100
AcDbEntity
  8
PROJECTION
  6
PHL_THICK
 62
     7
100
AcDbLine
 10
-2.424552
 20
-64.315948
 30
0.0
 11
-2.424552
 21
55.684052
 31
0.0
  0
LINE
  5
1AC
330
1F
100
AcDbEntity
  8
PROJECTION
  6
PHL_THICK
 62
     7
100
AcDbLine
 10
-1.900741
 20
-64.315948
 30
0.0
 11
-1.900741
 21
55.684052
 31
0.0
  0
LINE
  5
1AD
330
1F
100
AcDbEntity
  8
PROJECTION
  6
PHL_THICK
 62
     7
100
AcDbLine
 10
11.099259
 20
-22.82082
 30
0.0
 11
11.099259
 21
14.188927
 31
0.0
  0
LINE
  5
1AE
330
1F
100
AcDbEntity
  8
PROJECTION
  6
PHL_THICK
 62
     7
100
AcDbLine
 10
11.220311
 20
-22.82082
 30
0.0
 11
11.220311
 21
14.188927
 31
0.0
  0
LINE
  5
1AF
330
1F
100
AcDbEntity
  8
PROJECTION
  6
PHL_THICK
 62
     7
100
AcDbLine
 10
11.599259
 20
-22.815947
 30
0.0
 11
11.599259
 21
14.184053
 31
0.0
  0
LINE
  5
1B0
330
1F
100
AcDbEntity
  8
PROJECTION
  6
PHL_THICK
 62
     7
100
AcDbLine
 10
19.094385
 20
22.063002
 30
0.0
 11
19.094385
 21
22.184053
 31
0.0
  0
LINE
  5
1B1
330
1F
100
AcDbEntity
  8
PROJECTION
  6
PHL_THICK
 62
     7
100
AcDbLine
 10
19.094385
 20
-30.815947
 30
0.0
 11
19.094385
 21
-30.694895
 31
0.0
  0
LINE
  5
1B2
330
1F
100
AcDbEntity
  8
PROJECTION
  6
PHL_THICK
 62
     7
100
AcDbLine
 10
19.099258
 20
21.684055
 30
0.0
 11
19.099258
 21
22.063002
 31
0.0
  0
LINE
  5
1B3
330
1F
100
AcDbEntity
  8
PROJECTION
  6
PHL_THICK
 62
     7
100
AcDbLine
 10
19.099258
 20
-30.694895
 30
0.0
 11
19.099258
 21
-30.315945
 31
0.0
  0
LINE
  5
1B4
330
1F
100
AcDbEntity
  8
PROJECTION
  6
PHL_THICK
 62
     7
100
AcDbLine
 10
47.099258
 20
21.684055
 30
0.0
 11
47.099258
 21
22.063002
 31
0.0
  0
LINE
  5
1B5
330
1F
100
AcDbEntity
  8
PROJECTION
  6
PHL_THICK
 62
     7
100
AcDbLine
 10
47.099258
 20
-30.694895
 30
0.0
 11
47.099258
 21
-30.315945
 31
0.0
  0
LINE
  5
1B6
330
1F
100
AcDbEntity
  8
PROJECTION
  6
PHL_THICK
 62
     7
100
AcDbLine
 10
47.104134
 20
22.063002
 30
0.0
 11
47.104134
 21
22.184053
 31
0.0
  0
LINE
  5
1B7
330
1F
100
AcDbEntity
  8
PROJECTION
  6
PHL_THICK
 62
     7
100
AcDbLine
 10
47.104134
 20
-30.815947
 30
0.0
 11
47.104134
 21
-30.795771
 31
0.0
  0
LINE
  5
1B8
330
1F
100
AcDbEntity
  8
PROJECTION
  6
PHL_THICK
 62
     7
100
AcDbLine
 10
47.104134
 20
-30.795771
 30
0.0
 11
47.104134
 21
-30.775597
 31
0.0
  0
LINE
  5
1B9
330
1F
100
AcDbEntity
  8
PROJECTION
  6
PHL_THICK
 62
     7
100
AcDbLine
 10
47.104134
 20
-30.775597
 30
0.0
 11
47.104134
 21
-30.755421
 31
0.0
  0
LINE
  5
1BA
330
1F
100
AcDbEntity
  8
PROJECTION
  6
PHL_THICK
 62
     7
100
AcDbLine
 10
47.104134
 20
-30.755421
 30
0.0
 11
47.104134
 21
-30.735245
 31
0.0
  0
LINE
  5
1BB
330
1F
100
AcDbEntity
  8
PROJECTION
  6
PHL_THICK
 62
     7
100
AcDbLine
 10
47.104134
 20
-30.735245
 30
0.0
 11
47.104134
 21
-30.715069
 31
0.0
  0
LINE
  5
1BC
330
1F
100
AcDbEntity
  8
PROJECTION
  6
PHL_THICK
 62
     7
100
AcDbLine
 10
47.104134
 20
-30.715069
 30
0.0
 11
47.104134
 21
-30.694895
 31
0.0
  0
LINE
  5
1BD
330
1F
100
AcDbEntity
  8
PROJECTION
  6
PHL_THICK
 62
     7
100
AcDbLine
 10
54.599258
 20
-22.815947
 30
0.0
 11
54.599258
 21
14.184053
 31
0.0
  0
LINE
  5
1BE
330
1F
100
AcDbEntity
  8
PROJECTION
  6
PHL_THICK
 62
     7
100
AcDbLine
 10
54.978207
 20
-22.82082
 30
0.0
 11
54.978207
 21
14.188927
 31
0.0
  0
LINE
  5
1BF
330
1F
100
AcDbEntity
  8
PROJECTION
  6
PHL_THICK
 62
     7
100
AcDbLine
 10
55.099258
 20
-22.82082
 30
0.0
 11
55.099258
 21
14.188927
 31
0.0
  0
LINE
  5
1C0
330
1F
100
AcDbEntity
  8
PROJECTION
  6
PHL_THICK
 62
     7
100
AcDbLine
 10
68.099258
 20
-64.315948
 30
0.0
 11
68.099258
 21
55.684052
 31
0.0
  0
LINE
  5
1C1
330
1F
100
AcDbEntity
  8
PROJECTION
  6
PHL_THICK
 62
     7
100
AcDbLine
 10
68.62307
 20
-64.315948
 30
0.0
 11
68.62307
 21
55.684052
 31
0.0
  0
ARC
  5
1C2
330
1F
100
AcDbEntity
  8
PROJECTION
  6
PHL_THICK
 62
     7
100
AcDbCircle
 10
19.099259
 20
-22.815947
 30
0.0
 40
7.5
100
AcDbArc
 50
180.0
 51
269.9999934238
  0
ARC
  5
1C3
330
1F
100
AcDbEntity
  8
PROJECTION
  6
PHL_THICK
 62
     7
100
AcDbCircle
 10
19.099259
 20
14.184053
 30
0.0
 40
7.5
100
AcDbArc
 50
90.00000657620001
 51
180.0
  0
ELLIPSE
  5
1C4
330
1F
100
AcDbEntity
  8
PROJECTION
  6
PHL_THICK
 62
     7
100
AcDbEllipse
 10
19.104136
 20
-22.81107
 30
0.0
 11
5.66374799999046
 21
5.663747999990459
 31
0.0
210
0.0
220
0.0
230
1.0
 40
0.9987827848271642
 41
2.356803466424512
 42
3.926381725912153
  0
ELLIPSE
  5
1C5
330
1F
100
AcDbEntity
  8
PROJECTION
  6
PHL_THICK
 62
     7
100
AcDbEllipse
 10
19.104136
 20
14.179177
 30
0.0
 11
-5.663747999990459
 21
5.66374799999046
 31
0.0
210
0.0
220
0.0
230
1.0
 40
0.9987827848271642
 41
5.498396234839772
 42
7.067974479724211
  0
CIRCLE
  5
1C6
330
1F
100
AcDbEntity
  8
PROJECTION
  6
PHL_THICK
 62
     7
100
AcDbCircle
 10
33.099259
 20
-64.315947
 30
0.0
 40
29.0
  0
CIRCLE
  5
1C7
330
1F
100
AcDbEntity
  8
PROJECTION
  6
PHL_THICK
 62
     7
100
AcDbCircle
 10
33.099259
 20
-64.315947
 30
0.0
 40
30.0
  0
CIRCLE
  5
1C8
330
1F
100
AcDbEntity
  8
PROJECTION
  6
PHL_THICK
 62
     7
100
AcDbCircle
 10
33.099259
 20
-64.315947
 30
0.0
 40
30.5
  0
ARC
  5
1C9
330
1F
100
AcDbEntity
  8
PROJECTION
  6
PHL_THICK
 62
     7
100
AcDbCircle
 10
33.099259
 20
-64.315947
 30
0.0
 40
35.0
100
AcDbArc
 50
180.0
 51
0.0
  0
ARC
  5
1CA
330
1F
100
AcDbEntity
  8
PROJECTION
  6
PHL_THICK
 62
     7
100
AcDbCircle
 10
33.099259
 20
-64.315947
 30
0.0
 40
35.523812
100
AcDbArc
 50
180.0
 51
0.0
  0
CIRCLE
  5
1CB
330
1F
100
AcDbEntity
  8
PROJECTION
  6
PHL_THICK
 62
     7
100
AcDbCircle
 10
33.099259
 20
55.684053
 30
0.0
 40
28.9999994864
  0
CIRCLE
  5
1CC
330
1F
100
AcDbEntity
  8
PROJECTION
  6
PHL_THICK
 62
     7
100
AcDbCircle
 10
33.099259
 20
55.684053
 30
0.0
 40
30.0000004235
  0
CIRCLE
  5
1CD
330
1F
100
AcDbEntity
  8
PROJECTION
  6
PHL_THICK
 62
     7
100
AcDbCircle
 10
33.099259
 20
55.684053
 30
0.0
 40
30.5
  0
ARC
  5
1CE
330
1F
100
AcDbEntity
  8
PROJECTION
  6
PHL_THICK
 62
     7
100
AcDbCircle
 10
33.099259
 20
55.684053
 30
0.0
 40
35.0
100
AcDbArc
 50
0.0
 51
180.0
  0
ARC
  5
1CF
330
1F
100
AcDbEntity
  8
PROJECTION
  6
PHL_THICK
 62
     7
100
AcDbCircle
 10
33.099259
 20
55.684053
 30
0.0
 40
35.523812
100
AcDbArc
 50
0.0
 51
180.0
  0
ELLIPSE
  5
1D0
330
1F
100
AcDbEntity
  8
PROJECTION
  6
PHL_THICK
 62
     7
100
AcDbEllipse
 10
47.094383
 20
-22.81107
 30
0.0
 11
-5.663747999990459
 21
5.66374799999046
 31
0.0
210
0.0
220
0.0
230
1.0
 40
0.9987827848271642
 41
2.356803604464656
 42
3.926381840638136
  0
ELLIPSE
  5
1D1
330
1F
100
AcDbEntity
  8
PROJECTION
  6
PHL_THICK
 62
     7
100
AcDbEllipse
 10
47.094383
 20
14.179177
 30
0.0
 11
5.66374799999046
 21
5.663747999990459
 31
0.0
210
0.0
220
0.0
230
1.0
 40
0.9987827848271642
 41
5.498396134751898
 42
7.067974356322177
  0
ARC
  5
1D2
330
1F
100
AcDbEntity
  8
PROJECTION
  6
PHL_THICK
 62
     7
100
AcDbCircle
 10
47.099259
 20
-22.815947
 30
0.0
 40
7.5
100
AcDbArc
 50
269.9999934238
 51
0.0
  0
ARC
  5
1D3
330
1F
100
AcDbEntity
  8
PROJECTION
  6
PHL_THICK
 62
     7
100
AcDbCircle
 10
47.099259
 20
14.184053
 30
0.0
 40
7.5
100
AcDbArc
 50
0.0
 51
90.00000657620001
  0
ENDSEC
  0
SECTION
  2
OBJECTS
  0
DICTIONARY
  5
C
330
0
100
AcDbDictionary
  3
ACAD_GROUP
350
D
  3
ACAD_LAYOUT
350
1A
  3
ACAD_MATERIAL
350
43
  3
ACAD_MLEADERSTYLE
350
6B
  3
ACAD_MLINESTYLE
350
17
  3
ACAD_PLOTSETTINGS
350
19
  3
ACAD_SCALELIST
350
47
  3
ACAD_VISUALSTYLE
350
2A
  3
ACDBHEADERROUNDTRIPXREC
350
1D4
  3
ACDBVARIABLEDICTIONARY
350
1F5
  0
DICTIONARY
  5
200
330
8
100
AcDbDictionary
280
     1
  3
ACAD_XREC_ROUNDTRIP
360
201
  0
DICTIONARY
  5
D
102
{ACAD_REACTORS
330
C
102
}
330
C
100
AcDbDictionary
  0
DICTIONARY
  5
1A
102
{ACAD_REACTORS
330
C
102
}
330
C
100
AcDbDictionary
  0
DICTIONARY
  5
43
102
{ACAD_REACTORS
330
C
102
}
330
C
100
AcDbDictionary
  3
BYBLOCK
350
45
  3
BYLAYER
350
44
  3
GLOBAL
350
46
  0
DICTIONARY
  5
6B
102
{ACAD_REACTORS
330
C
102
}
330
C
100
AcDbDictionary
  3
STANDARD
350
6C
  0
DICTIONARY
  5
17
102
{ACAD_REACTORS
330
C
102
}
330
C
100
AcDbDictionary
  3
STANDARD
350
18
  0
DICTIONARY
  5
19
102
{ACAD_REACTORS
330
C
102
}
330
C
100
AcDbDictionary
  0
DICTIONARY
  5
47
102
{ACAD_REACTORS
330
C
102
}
330
C
100
AcDbDictionary
  3
A0
350
48
  3
A1
350
49
  3
A2
350
4A
  3
A3
350
4B
  3
A4
350
4C
  3
A5
350
4D
  3
A6
350
4E
  3
A7
350
4F
  3
A8
350
50
  3
A9
350
51
  3
B0
350
52
  3
B1
350
53
  3
B2
350
54
  3
B3
350
55
  3
B4
350
56
  3
B5
350
57
  3
B6
350
58
  3
B7
350
59
  3
B8
350
5A
  3
B9
350
5B
  3
C0
350
5C
  3
C1
350
5D
  3
C2
350
5E
  3
C3
350
5F
  3
C4
350
60
  3
C5
350
61
  3
C6
350
62
  3
C7
350
63
  3
C8
350
64
  3
C9
350
65
  3
D0
350
66
  3
D1
350
67
  3
D2
350
68
  0
DICTIONARY
  5
2A
102
{ACAD_REACTORS
330
C
102
}
330
C
100
AcDbDictionary
  3
2DWIREFRAME
350
2F
  3
BASIC
350
32
  3
BRIGHTEN
350
36
  3
COLORCHANGE
350
3A
  3
CONCEPTUAL
350
34
  3
DIM
350
35
  3
EDGECOLOROFF
350
3D
  3
FACEPATTERN
350
39
  3
FLAT
350
2B
  3
FLATWITHEDGES
350
2C
  3
GOURAUD
350
2D
  3
GOURAUDWITHEDGES
350
2E
  3
HIDDEN
350
31
  3
JITTEROFF
350
3B
  3
LINEPATTERN
350
38
  3
OVERHANGOFF
350
3C
  3
REALISTIC
350
33
  3
SHADED
350
42
  3
SHADED_WITH_EDGES
350
41
  3
SHADES_OF_GRAY
350
3E
  3
SKETCHY
350
3F
  3
THICKEN
350
37
  3
WIREFRAME
350
30
  3
X-RAY
350
40
  0
DICTIONARY
  5
1D4
102
{ACAD_REACTORS
330
C
102
}
330
C
100
AcDbDictionary
  3
CEPSNID
350
1DE
  3
CEPSNTYPE
350
1DD
  3
DIMSTYLEDATA
350
1F4
  3
FINGERPRINTGUID
350
1DF
  3
HYPERLINKBASE
350
1D7
  3
INSUNITS
350
1DC
  3
LAYOUTDICT
350
1D9
  3
LWETCUNION
350
1DB
  3
PLOTSETDICT
350
1DA
  3
PSVPSCALE
350
1E1
  3
PUCSBASE
350
1E4
  3
PUCSORGBACK
350
1EA
  3
PUCSORGBOTTOM
350
1E6
  3
PUCSORGFRONT
350
1E9
  3
PUCSORGLEFT
350
1E7
  3
PUCSORGRIGHT
350
1E8
  3
PUCSORGTOP
350
1E5
  3
PUCSORTHOREF
350
1E2
  3
PUCSORTHOVIEW
350
1E3
  3
STYLESHEET
350
1D8
  3
TSTACKALIGN
350
1D5
  3
TSTACKSIZE
350
1D6
  3
UCSBASE
350
1ED
  3
UCSORGBACK
350
1F3
  3
UCSORGBOTTOM
350
1EF
  3
UCSORGFRONT
350
1F2
  3
UCSORGLEFT
350
1F0
  3
UCSORGRIGHT
350
1F1
  3
UCSORGTOP
350
1EE
  3
UCSORTHOREF
350
1EB
  3
UCSORTHOVIEW
350
1EC
  3
VERSIONGUID
350
1E0
  0
DICTIONARY
  5
1F5
102
{ACAD_REACTORS
330
C
102
}
330
C
100
AcDbDictionary
  3
CANNOSCALE
350
202
  3
CENTEREXE
350
1FC
  3
CENTERLTYPEFILE
350
1FD
  3
CMLEADERSTYLE
350
1F7
  3
CTABLESTYLE
350
1F6
  3
DIMASSOC
350
1FE
  3
HIDETEXT
350
1FF
  3
MSLTSCALE
350
203
  3
PSOLHEIGHT
350
1F9
  3
PSOLWIDTH
350
1F8
  0
XRECORD
  5
201
102
{ACAD_REACTORS
330
200
102
}
330
200
100
AcDbXrecord
102
VTR_0.000_0.000_1.000_1.000_VISUALSTYLE
340
2F
102
VTR_0.000_0.000_1.000_1.000_GRIDDISPLAY
 70
     3
102
VTR_0.000_0.000_1.000_1.000_GRIDMAJOR
 70
     5
102
VTR_0.000_0.000_1.000_1.000_DEFAULTLIGHTING
280
     1
102
VTR_0.000_0.000_1.000_1.000_DEFAULTLIGHTINGTYPE
 70
     1
102
VTR_0.000_0.000_1.000_1.000_BRIGHTNESS
141
0.0
102
VTR_0.000_0.000_1.000_1.000_CONTRAST
142
0.0
  0
MATERIAL
  5
45
102
{ACAD_REACTORS
330
43
102
}
102
{ACAD_XDICTIONARY
360
206
102
}
330
43
100
AcDbMaterial
  1
BYBLOCK
  0
MATERIAL
  5
44
102
{ACAD_REACTORS
330
43
102
}
102
{ACAD_XDICTIONARY
360
204
102
}
330
43
100
AcDbMaterial
  1
BYLAYER
  0
MATERIAL
  5
46
102
{ACAD_REACTORS
330
43
102
}
102
{ACAD_XDICTIONARY
360
208
102
}
330
43
100
AcDbMaterial
  1
GLOBAL
  0
ACAD_PROXY_OBJECT
  5
6C
102
{ACAD_REACTORS
330
6B
102
}
330
6B
100
AcDbProxyObject
 90
      499
 91
      505
 93
      610
310
40901902A4063FBFFFFFE0000000000000020400000000000020404214DD185B99185C990000000000000104090141901A00000000000004100000000000000041025764000000000000039000
340
14
340
0
340
11
340
0
 94
        0
1001
ACAD_MLEADERVER
1070
     2
  0
MLINESTYLE
  5
18
102
{ACAD_REACTORS
330
17
102
}
330
17
100
AcDbMlineStyle
  2
Standard
 70
     0
  3

 62
   256
 51
90.0
 52
90.0
 71
     2
 49
0.5
 62
   256
  6
BYLAYER
 49
-0.5
 62
   256
  6
BYLAYER
  0
ACAD_PROXY_OBJECT
  5
48
102
{ACAD_REACTORS
330
47
102
}
330
47
100
AcDbProxyObject
 90
      499
 91
      503
 93
       41
310
903313A31580
  0
ACAD_PROXY_OBJECT
  5
49
102
{ACAD_REACTORS
330
47
102
}
330
47
100
AcDbProxyObject
 90
      499
 91
      503
 93
      105
310
903313A324000000000000004000
  0
ACAD_PROXY_OBJECT
  5
4A
102
{ACAD_REACTORS
330
47
102
}
330
47
100
AcDbProxyObject
 90
      499
 91
      503
 93
      105
310
903313A344000000000000104000
  0
ACAD_PROXY_OBJECT
  5
4B
102
{ACAD_REACTORS
330
47
102
}
330
47
100
AcDbProxyObject
 90
      499
 91
      503
 93
      105
310
903313A354000000000000144000
  0
ACAD_PROXY_OBJECT
  5
4C
102
{ACAD_REACTORS
330
47
102
}
330
47
100
AcDbProxyObject
 90
      499
 91
      503
 93
      105
310
903313A384000000000000204000
  0
ACAD_PROXY_OBJECT
  5
4D
102
{ACAD_REACTORS
330
47
102
}
330
47
100
AcDbProxyObject
 90
      499
 91
      503
 93
      113
310
904313A31304000000000000244000
  0
ACAD_PROXY_OBJECT
  5
4E
102
{ACAD_REACTORS
330
47
102
}
330
47
100
AcDbProxyObject
 90
      499
 91
      503
 93
      113
310
904313A31364000000000000304000
  0
ACAD_PROXY_OBJECT
  5
4F
102
{ACAD_REACTORS
330
47
102
}
330
47
100
AcDbProxyObject
 90
      499
 91
      503
 93
      113
310
904313A32304000000000000344000
  0
ACAD_PROXY_OBJECT
  5
50
102
{ACAD_REACTORS
330
47
102
}
330
47
100
AcDbProxyObject
 90
      499
 91
      503
 93
      113
310
904313A333040000000000003E4000
  0
ACAD_PROXY_OBJECT
  5
51
102
{ACAD_REACTORS
330
47
102
}
330
47
100
AcDbProxyObject
 90
      499
 91
      503
 93
      113
310
904313A34304000000000000444000
  0
ACAD_PROXY_OBJECT
  5
52
102
{ACAD_REACTORS
330
47
102
}
330
47
100
AcDbProxyObject
 90
      499
 91
      503
 93
      113
310
904313A35304000000000000494000
  0
ACAD_PROXY_OBJECT
  5
53
102
{ACAD_REACTORS
330
47
102
}
330
47
100
AcDbProxyObject
 90
      499
 91
      503
 93
      121
310
905313A3130304000000000000594000
  0
ACAD_PROXY_OBJECT
  5
54
102
{ACAD_REACTORS
330
47
102
}
330
47
100
AcDbProxyObject
 90
      499
 91
      503
 93
      105
310
903323A310000000000000010100
  0
ACAD_PROXY_OBJECT
  5
55
102
{ACAD_REACTORS
330
47
102
}
330
47
100
AcDbProxyObject
 90
      499
 91
      503
 93
      105
310
903343A310000000000000410100
  0
ACAD_PROXY_OBJECT
  5
56
102
{ACAD_REACTORS
330
47
102
}
330
47
100
AcDbProxyObject
 90
      499
 91
      503
 93
      105
310
903383A310000000000000810100
  0
ACAD_PROXY_OBJECT
  5
57
102
{ACAD_REACTORS
330
47
102
}
330
47
100
AcDbProxyObject
 90
      499
 91
      503
 93
      113
310
90431303A310000000000000910100
  0
ACAD_PROXY_OBJECT
  5
58
102
{ACAD_REACTORS
330
47
102
}
330
47
100
AcDbProxyObject
 90
      499
 91
      503
 93
      121
310
9053130303A310000000000001650100
  0
ACAD_PROXY_OBJECT
  5
59
102
{ACAD_REACTORS
330
47
102
}
330
47
100
AcDbProxyObject
 90
      499
 91
      503
 93
      257
310
90E312F31323822203D2031272D3022000000000000200FC000000000000284000
  0
ACAD_PROXY_OBJECT
  5
5A
102
{ACAD_REACTORS
330
47
102
}
330
47
100
AcDbProxyObject
 90
      499
 91
      503
 93
      249
310
90D312F363422203D2031272D3022000000000000240FC000000000000284000
  0
ACAD_PROXY_OBJECT
  5
5B
102
{ACAD_REACTORS
330
47
102
}
330
47
100
AcDbProxyObject
 90
      499
 91
      503
 93
      249
310
90D312F333222203D2031272D3022000000000000280FC000000000000284000
  0
ACAD_PROXY_OBJECT
  5
5C
102
{ACAD_REACTORS
330
47
102
}
330
47
100
AcDbProxyObject
 90
      499
 91
      503
 93
      249
310
90D312F313622203D2031272D30220000000000002C0FC000000000000284000
  0
ACAD_PROXY_OBJECT
  5
5D
102
{ACAD_REACTORS
330
47
102
}
330
47
100
AcDbProxyObject
 90
      499
 91
      503
 93
      249
310
90D332F333222203D2031272D30220000000000002E0FC000000000000284000
  0
ACAD_PROXY_OBJECT
  5
5E
102
{ACAD_REACTORS
330
47
102
}
330
47
100
AcDbProxyObject
 90
      499
 91
      503
 93
      241
310
90C312F3822203D2031272D3022000000000000300FC000000000000284000
  0
ACAD_PROXY_OBJECT
  5
5F
102
{ACAD_REACTORS
330
47
102
}
330
47
100
AcDbProxyObject
 90
      499
 91
      503
 93
      249
310
90D332F313622203D2031272D3022000000000000320FC000000000000284000
  0
ACAD_PROXY_OBJECT
  5
60
102
{ACAD_REACTORS
330
47
102
}
330
47
100
AcDbProxyObject
 90
      499
 91
      503
 93
      241
310
90C312F3422203D2031272D3022000000000000340FC000000000000284000
  0
ACAD_PROXY_OBJECT
  5
61
102
{ACAD_REACTORS
330
47
102
}
330
47
100
AcDbProxyObject
 90
      499
 91
      503
 93
      241
310
90C332F3822203D2031272D3022000000000000360FC000000000000284000
  0
ACAD_PROXY_OBJECT
  5
62
102
{ACAD_REACTORS
330
47
102
}
330
47
100
AcDbProxyObject
 90
      499
 91
      503
 93
      241
310
90C312F3222203D2031272D3022000000000000380FC000000000000284000
  0
ACAD_PROXY_OBJECT
  5
63
102
{ACAD_REACTORS
330
47
102
}
330
47
100
AcDbProxyObject
 90
      499
 91
      503
 93
      241
310
90C332F3422203D2031272D30220000000000003A0FC000000000000284000
  0
ACAD_PROXY_OBJECT
  5
64
102
{ACAD_REACTORS
330
47
102
}
330
47
100
AcDbProxyObject
 90
      499
 91
      503
 93
      161
310
90A3122203D2031272D30224000000000000284000
  0
ACAD_PROXY_OBJECT
  5
65
102
{ACAD_REACTORS
330
47
102
}
330
47
100
AcDbProxyObject
 90
      499
 91
      503
 93
      257
310
90E312D312F3222203D2031272D30220000000000003E0FC000000000000284000
  0
ACAD_PROXY_OBJECT
  5
66
102
{ACAD_REACTORS
330
47
102
}
330
47
100
AcDbProxyObject
 90
      499
 91
      503
 93
      225
310
90A3322203D2031272D302200000000000002100000000000000284000
  0
ACAD_PROXY_OBJECT
  5
67
102
{ACAD_REACTORS
330
47
102
}
330
47
100
AcDbProxyObject
 90
      499
 91
      503
 93
      225
310
90A3622203D2031272D302200000000000006100000000000000284000
  0
ACAD_PROXY_OBJECT
  5
68
102
{ACAD_REACTORS
330
47
102
}
330
47
100
AcDbProxyObject
 90
      499
 91
      503
 93
      249
310
90D31272D3022203D2031272D30220000000000000A100000000000000284000
  0
ACAD_PROXY_OBJECT
  5
2F
102
{ACAD_REACTORS
330
2A
102
}
330
2A
100
AcDbProxyObject
 90
      499
 91
      501
 93
      436
310
42CC9915DA5C99599C985B595049028333333333333E33F0000000000000F90107901411070040501600405405064090741402480A0340
1001
ACAD
1000
AcDbSavedByObjectVersion
1070
     0
  0
ACAD_PROXY_OBJECT
  5
32
102
{ACAD_REACTORS
330
2A
102
}
330
2A
100
AcDbProxyObject
 90
      499
 91
      501
 93
      388
310
4150985CDA58D07406404333333333333E33F0000000000000F90107A41107004050150841D405064090741402480A0350
1001
ACAD
1000
AcDbSavedByObjectVersion
1070
     0
  0
ACAD_PROXY_OBJECT
  5
36
102
{ACAD_REACTORS
330
2A
102
}
330
2A
100
AcDbProxyObject
 90
      499
 91
      501
 93
      428
310
42109C9A59DA1D195B90C409028333333333333E33F0000000000000F9010790141107004050150841D405064090741402480A029950
1001
ACAD
1000
AcDbSavedByObjectVersion
1070
     0
  0
ACAD_PROXY_OBJECT
  5
3A
102
{ACAD_REACTORS
330
2A
102
}
330
2A
100
AcDbProxyObject
 90
      499
 91
      501
 93
      452
310
42D0DBDB1BDC90DA185B99D95104090240C333333333333E33F0000000000000F90108901411070040501508421405064090741402480A0350
1001
ACAD
1000
AcDbSavedByObjectVersion
1070
     0
  0
ACAD_PROXY_OBJECT
  5
34
102
{ACAD_REACTORS
330
2A
102
}
330
2A
100
AcDbProxyObject
 90
      499
 91
      501
 93
      500
310
4290DBDB98D95C1D1D585B10940D028333333333333E33F0000000000000F90107902409070040501000000000018199010841D405064090740C02480A0340
1001
ACAD
1000
AcDbSavedByObjectVersion
1070
     0
  0
ACAD_PROXY_OBJECT
  5
35
102
{ACAD_REACTORS
330
2A
102
}
330
2A
100
AcDbProxyObject
 90
      499
 91
      501
 93
      412
310
40D11A5B50B409028333333333333E33F0000000000000F9010790141107004050150841D405064090741402480A02677FFFFFD0
1001
ACAD
1000
AcDbSavedByObjectVersion
1070
     0
  0
ACAD_PROXY_OBJECT
  5
3D
102
{ACAD_REACTORS
330
2A
102
}
330
2A
100
AcDbProxyObject
 90
      499
 91
      501
 93
      452
310
43115919D950DBDB1BDC93D999916409028333333333333E33F0000000000000F9010790141107004050150841D405064090741402480A0350
1001
ACAD
1000
AcDbSavedByObjectVersion
1070
     0
  0
ACAD_PROXY_OBJECT
  5
39
102
{ACAD_REACTORS
330
2A
102
}
330
2A
100
AcDbProxyObject
 90
      499
 91
      501
 93
      444
310
42D19858D95C185D1D195C9B90F409028333333333333E33F0000000000000F9010790141107004050150841D405064090741402480A0350
1001
ACAD
1000
AcDbSavedByObjectVersion
1070
     0
  0
ACAD_PROXY_OBJECT
  5
2B
102
{ACAD_REACTORS
330
2A
102
}
330
2A
100
AcDbProxyObject
 90
      499
 91
      501
 93
      380
310
41119B185D240901404333333333333E33F0000000000000F9010740A907004050150841D405064090741402480A1B50
1001
ACAD
1000
AcDbSavedByObjectVersion
1070
     0
  0
ACAD_PROXY_OBJECT
  5
2C
102
{ACAD_REACTORS
330
2A
102
}
330
2A
100
AcDbProxyObject
 90
      499
 91
      501
 93
      468
310
43519B185D15DA5D1A115919D95CD0140901404333333333333E33F0000000000000F90107409019070040501600405405064090741402480A1B50
1001
ACAD
1000
AcDbSavedByObjectVersion
1070
     0
  0
ACAD_PROXY_OBJECT
  5
2D
102
{ACAD_REACTORS
330
2A
102
}
330
2A
100
AcDbProxyObject
 90
      499
 91
      501
 93
      404
310
41D1DBDD5C985D5910240902404333333333333E33F0000000000000F9010740A9070040501641D405064090741402480A1B50
1001
ACAD
1000
AcDbSavedByObjectVersion
1070
     0
  0
ACAD_PROXY_OBJECT
  5
2E
102
{ACAD_REACTORS
330
2A
102
}
330
2A
100
AcDbProxyObject
 90
      499
 91
      501
 93
      492
310
4411DBDD5C985D5915DA5D1A115919D95CD0340902404333333333333E33F0000000000000F90107409019070040501600405405064090741402480A1B50
1001
ACAD
1000
AcDbSavedByObjectVersion
1070
     0
  0
ACAD_PROXY_OBJECT
  5
31
102
{ACAD_REACTORS
330
2A
102
}
330
2A
100
AcDbProxyObject
 90
      499
 91
      501
 93
      476
310
41921A5919195B90640502408333333333333E33F0000000000000F901079024090700405020000000000001110200405405064090740C02480A0340
1001
ACAD
1000
AcDbSavedByObjectVersion
1070
     0
  0
ACAD_PROXY_OBJECT
  5
3B
102
{ACAD_REACTORS
330
2A
102
}
330
2A
100
AcDbProxyObject
 90
      499
 91
      501
 93
      428
310
42529A5D1D195C93D999914409028333333333333E33F0000000000000F9010790141107004050150A41D405064090741402480A0350
1001
ACAD
1000
AcDbSavedByObjectVersion
1070
     0
  0
ACAD_PROXY_OBJECT
  5
38
102
{ACAD_REACTORS
330
2A
102
}
330
2A
100
AcDbProxyObject
 90
      499
 91
      501
 93
      444
310
42D31A5B995C185D1D195C9B90E409028333333333333E33F0000000000000F9010790141107004050750841D405064090741402483A0350
1001
ACAD
1000
AcDbSavedByObjectVersion
1070
     0
  0
ACAD_PROXY_OBJECT
  5
3C
102
{ACAD_REACTORS
330
2A
102
}
330
2A
100
AcDbProxyObject
 90
      499
 91
      501
 93
      444
310
42D3DD995C9A185B99D3D999915409028333333333333E33F0000000000000F9010790141107004050150941D405064090741402480A0350
1001
ACAD
1000
AcDbSavedByObjectVersion
1070
     0
  0
ACAD_PROXY_OBJECT
  5
33
102
{ACAD_REACTORS
330
2A
102
}
330
2A
100
AcDbProxyObject
 90
      499
 91
      501
 93
      428
310
425499585B1A5CDD1A58D08409038333333333333E33F0000000000000F9010740A907004050150800405405064090740C02480A1B40
1001
ACAD
1000
AcDbSavedByObjectVersion
1070
     0
  0
ACAD_PROXY_OBJECT
  5
42
102
{ACAD_REACTORS
330
2A
102
}
330
2A
100
AcDbProxyObject
 90
      499
 91
      501
 93
      420
310
4194DA1859195911B40902404333333333333E33F0000000000000F9010740A41107004050150800405405064090840C02480A0B40
1001
ACAD
1000
AcDbSavedByObjectVersion
1070
     0
  0
ACAD_PROXY_OBJECT
  5
41
102
{ACAD_REACTORS
330
2A
102
}
330
2A
100
AcDbProxyObject
 90
      499
 91
      501
 93
      516
310
4454DA18591959081DDA5D1A08195919D95CD1A40902404333333333333E33F0000000000000F901074090142907004050250800405405064090740C02480A0B40
1001
ACAD
1000
AcDbSavedByObjectVersion
1070
     0
  0
ACAD_PROXY_OBJECT
  5
3E
102
{ACAD_REACTORS
330
2A
102
}
330
2A
100
AcDbProxyObject
 90
      499
 91
      501
 93
      532
310
4394DA1859195CC81BD98811DC985E5174090240C333333333333E33F0000000000000F901079024090741D01000000000000111010841D405064090740C02480A0340
1001
ACAD
1000
AcDbSavedByObjectVersion
1070
     0
  0
ACAD_PROXY_OBJECT
  5
3F
102
{ACAD_REACTORS
330
2A
102
}
330
2A
100
AcDbProxyObject
 90
      499
 91
      501
 93
      476
310
41D4DAD95D18DA1E51840502408333333333333E33F0000000000000F901079024090741D01000000000000111010B41D405064090741802480A0340
1001
ACAD
1000
AcDbSavedByObjectVersion
1070
     0
  0
ACAD_PROXY_OBJECT
  5
37
102
{ACAD_REACTORS
330
2A
102
}
330
2A
100
AcDbProxyObject
 90
      499
 91
      501
 93
      412
310
41D51A1A58DAD95B90D409028333333333333E33F0000000000000F9010790141107004050150C41D405064090741402480A0350
1001
ACAD
1000
AcDbSavedByObjectVersion
1070
     0
  0
ACAD_PROXY_OBJECT
  5
30
102
{ACAD_REACTORS
330
2A
102
}
330
2A
100
AcDbProxyObject
 90
      499
 91
      501
 93
      420
310
4255DA5C99599C985B595059028333333333333E33F0000000000000F90107901411070040501600405405064090740C02480A0340
1001
ACAD
1000
AcDbSavedByObjectVersion
1070
     0
  0
ACAD_PROXY_OBJECT
  5
40
102
{ACAD_REACTORS
330
2A
102
}
330
2A
100
AcDbProxyObject
 90
      499
 91
      501
 93
      404
310
41560B54985E51940902404000000000000E03F0000000000000F9010740501907004050150841D405064090740C02480A1B40
1001
ACAD
1000
AcDbSavedByObjectVersion
1070
     0
  0
XRECORD
  5
1DE
102
{ACAD_REACTORS
330
1D4
102
}
330
1D4
100
AcDbXrecord
340
0
  0
XRECORD
  5
1DD
102
{ACAD_REACTORS
330
1D4
102
}
330
1D4
100
AcDbXrecord
 90
        0
  0
XRECORD
  5
1F4
102
{ACAD_REACTORS
330
1D4
102
}
330
1D4
100
AcDbXrecord
1000
DSTYLE
1002
{
1070
   340
340
11
1002
}
  0
XRECORD
  5
1DF
102
{ACAD_REACTORS
330
1D4
102
}
330
1D4
100
AcDbXrecord
  1
{2CD7050F-559D-4E95-9D42-F8F0E73A6CDB}
  0
XRECORD
  5
1D7
102
{ACAD_REACTORS
330
1D4
102
}
330
1D4
100
AcDbXrecord
  1

  0
XRECORD
  5
1DC
102
{ACAD_REACTORS
330
1D4
102
}
330
1D4
100
AcDbXrecord
 90
        4
  0
XRECORD
  5
1D9
102
{ACAD_REACTORS
330
1D4
102
}
330
1D4
100
AcDbXrecord
340
1A
  0
XRECORD
  5
1DB
102
{ACAD_REACTORS
330
1D4
102
}
330
1D4
100
AcDbXrecord
 90
    10781
  0
XRECORD
  5
1DA
102
{ACAD_REACTORS
330
1D4
102
}
330
1D4
100
AcDbXrecord
340
19
  0
XRECORD
  5
1E1
102
{ACAD_REACTORS
330
1D4
102
}
330
1D4
100
AcDbXrecord
 40
0.0
  0
XRECORD
  5
1E4
102
{ACAD_REACTORS
330
1D4
102
}
330
1D4
100
AcDbXrecord
340
0
  0
XRECORD
  5
1EA
102
{ACAD_REACTORS
330
1D4
102
}
330
1D4
100
AcDbXrecord
 10
0.0
 20
0.0
 30
0.0
  0
XRECORD
  5
1E6
102
{ACAD_REACTORS
330
1D4
102
}
330
1D4
100
AcDbXrecord
 10
0.0
 20
0.0
 30
0.0
  0
XRECORD
  5
1E9
102
{ACAD_REACTORS
330
1D4
102
}
330
1D4
100
AcDbXrecord
 10
0.0
 20
0.0
 30
0.0
  0
XRECORD
  5
1E7
102
{ACAD_REACTORS
330
1D4
102
}
330
1D4
100
AcDbXrecord
 10
0.0
 20
0.0
 30
0.0
  0
XRECORD
  5
1E8
102
{ACAD_REACTORS
330
1D4
102
}
330
1D4
100
AcDbXrecord
 10
0.0
 20
0.0
 30
0.0
  0
XRECORD
  5
1E5
102
{ACAD_REACTORS
330
1D4
102
}
330
1D4
100
AcDbXrecord
 10
0.0
 20
0.0
 30
0.0
  0
XRECORD
  5
1E2
102
{ACAD_REACTORS
330
1D4
102
}
330
1D4
100
AcDbXrecord
340
0
  0
XRECORD
  5
1E3
102
{ACAD_REACTORS
330
1D4
102
}
330
1D4
100
AcDbXrecord
 70
     0
  0
XRECORD
  5
1D8
102
{ACAD_REACTORS
330
1D4
102
}
330
1D4
100
AcDbXrecord
  1

  0
XRECORD
  5
1D5
102
{ACAD_REACTORS
330
1D4
102
}
330
1D4
100
AcDbXrecord
 90
        1
  0
XRECORD
  5
1D6
102
{ACAD_REACTORS
330
1D4
102
}
330
1D4
100
AcDbXrecord
 90
       70
  0
XRECORD
  5
1ED
102
{ACAD_REACTORS
330
1D4
102
}
330
1D4
100
AcDbXrecord
340
0
  0
XRECORD
  5
1F3
102
{ACAD_REACTORS
330
1D4
102
}
330
1D4
100
AcDbXrecord
 10
0.0
 20
0.0
 30
0.0
  0
XRECORD
  5
1EF
102
{ACAD_REACTORS
330
1D4
102
}
330
1D4
100
AcDbXrecord
 10
0.0
 20
0.0
 30
0.0
  0
XRECORD
  5
1F2
102
{ACAD_REACTORS
330
1D4
102
}
330
1D4
100
AcDbXrecord
 10
0.0
 20
0.0
 30
0.0
  0
XRECORD
  5
1F0
102
{ACAD_REACTORS
330
1D4
102
}
330
1D4
100
AcDbXrecord
 10
0.0
 20
0.0
 30
0.0
  0
XRECORD
  5
1F1
102
{ACAD_REACTORS
330
1D4
102
}
330
1D4
100
AcDbXrecord
 10
0.0
 20
0.0
 30
0.0
  0
XRECORD
  5
1EE
102
{ACAD_REACTORS
330
1D4
102
}
330
1D4
100
AcDbXrecord
 10
0.0
 20
0.0
 30
0.0
  0
XRECORD
  5
1EB
102
{ACAD_REACTORS
330
1D4
102
}
330
1D4
100
AcDbXrecord
340
0
  0
XRECORD
  5
1EC
102
{ACAD_REACTORS
330
1D4
102
}
330
1D4
100
AcDbXrecord
 70
     0
  0
XRECORD
  5
1E0
102
{ACAD_REACTORS
330
1D4
102
}
330
1D4
100
AcDbXrecord
  1
{FAEB1C32-E019-11D5-929B-00C0DF256EC4}
  0
DICTIONARYVAR
  5
202
102
{ACAD_REACTORS
330
1F5
102
}
330
1F5
100
DictionaryVariables
280
     0
  1
1:1
  0
DICTIONARYVAR
  5
1FC
102
{ACAD_REACTORS
330
1F5
102
}
330
1F5
100
DictionaryVariables
280
     0
  1
3.500000
  0
DICTIONARYVAR
  5
1FD
102
{ACAD_REACTORS
330
1F5
102
}
330
1F5
100
DictionaryVariables
280
     0
  1
acadiso.lin
  0
DICTIONARYVAR
  5
1F7
102
{ACAD_REACTORS
330
1F5
102
}
330
1F5
100
DictionaryVariables
280
     0
  1
Standard
  0
DICTIONARYVAR
  5
1F6
102
{ACAD_REACTORS
330
1F5
102
}
330
1F5
100
DictionaryVariables
280
     0
  1
Standard
  0
DICTIONARYVAR
  5
1FE
102
{ACAD_REACTORS
330
1F5
102
}
330
1F5
100
DictionaryVariables
280
     0
  1
2
  0
DICTIONARYVAR
  5
1FF
102
{ACAD_REACTORS
330
1F5
102
}
330
1F5
100
DictionaryVariables
280
     0
  1
1
  0
DICTIONARYVAR
  5
203
102
{ACAD_REACTORS
330
1F5
102
}
330
1F5
100
DictionaryVariables
280
     0
  1
1
  0
DICTIONARYVAR
  5
1F9
102
{ACAD_REACTORS
330
1F5
102
}
330
1F5
100
DictionaryVariables
280
     0
  1
80.000000
  0
DICTIONARYVAR
  5
1F8
102
{ACAD_REACTORS
330
1F5
102
}
330
1F5
100
DictionaryVariables
280
     0
  1
5.000000
  0
DICTIONARY
  5
206
330
45
100
AcDbDictionary
280
     1
  3
ACAD_XREC_ROUNDTRIP
360
207
  0
DICTIONARY
  5
204
330
44
100
AcDbDictionary
280
     1
  3
ACAD_XREC_ROUNDTRIP
360
205
  0
DICTIONARY
  5
208
330
46
100
AcDbDictionary
280
     1
  3
ACAD_XREC_ROUNDTRIP
360
209
  0
XRECORD
  5
207
102
{ACAD_REACTORS
330
206
102
}
330
206
100
AcDbXrecord
102
MATERIAL
148
0.0
149
0.0
149
0.0
 93
        0
 94
      127
282
     0
 72
     1
 77
     1
171
     1
175
     1
179
     1
273
     0
  0
XRECORD
  5
205
102
{ACAD_REACTORS
330
204
102
}
330
204
100
AcDbXrecord
102
MATERIAL
148
0.0
149
0.0
149
0.0
 93
        0
 94
      127
282
     0
 72
     1
 77
     1
171
     1
175
     1
179
     1
273
     0
  0
XRECORD
  5
209
102
{ACAD_REACTORS
330
208
102
}
330
208
100
AcDbXrecord
102
MATERIAL
148
0.0
149
0.0
149
0.0
 93
        0
 94
      127
282
     0
 72
     1
 77
     1
171
     1
175
     1
179
     1
273
     0
  0
ENDSEC
  0
EOF
