  0
SECTION
  2
HEADER
  9
$ACADVER
  1
AC1014
  9
$ACADMAINTVER
 70
     9
  9
$DWGCODEPAGE
  3
ANSI_1252
  9
$INSBASE
 10
0.0
 20
0.0
 30
0.0
  9
$EXTMIN
 10
0.0
 20
0.0
 30
0.0
  9
$EXTMAX
 10
25.0
 20
35.0
 30
0.0
  9
$LIMMIN
 10
0.0
 20
0.0
  9
$LIMMAX
 10
420.0
 20
297.0
  9
$ORTHOMODE
 70
     0
  9
$REGENMODE
 70
     1
  9
$FILLMODE
 70
     1
  9
$QTEXTMODE
 70
     0
  9
$MIRRTEXT
 70
     1
  9
$DRAGMODE
 70
     2
  9
$LTSCALE
 40
5.9
  9
$OSMODE
 70
    37
  9
$ATTMODE
 70
     1
  9
$TEXTSIZE
 40
2.5
  9
$TRACEWID
 40
1.0
  9
$TEXTSTYLE
  7
STANDARD
  9
$CLAYER
  8
0
  9
$CELTYPE
  6
BYLAYER
  9
$CECOLOR
 62
   256
  9
$CELTSCALE
 40
1.0
  9
$DELOBJ
 70
     1
  9
$DISPSILH
 70
     0
  9
$DIMSCALE
 40
1.0
  9
$DIMASZ
 40
2.5
  9
$DIMEXO
 40
0.625
  9
$DIMDLI
 40
3.75
  9
$DIMRND
 40
0.0
  9
$DIMDLE
 40
0.0
  9
$DIMEXE
 40
1.25
  9
$DIMTP
 40
0.0
  9
$DIMTM
 40
0.0
  9
$DIMTXT
 40
2.5
  9
$DIMCEN
 40
2.5
  9
$DIMTSZ
 40
0.0
  9
$DIMTOL
 70
     0
  9
$DIMLIM
 70
     0
  9
$DIMTIH
 70
     0
  9
$DIMTOH
 70
     0
  9
$DIMSE1
 70
     0
  9
$DIMSE2
 70
     0
  9
$DIMTAD
 70
     1
  9
$DIMZIN
 70
     8
  9
$DIMBLK
  1

  9
$DIMASO
 70
     1
  9
$DIMSHO
 70
     1
  9
$DIMPOST
  1

  9
$DIMAPOST
  1

  9
$DIMALT
 70
     0
  9
$DIMALTD
 70
     3
  9
$DIMALTF
 40
0.03937007874016
  9
$DIMLFAC
 40
1.0
  9
$DIMTOFL
 70
     1
  9
$DIMTVP
 40
0.0
  9
$DIMTIX
 70
     0
  9
$DIMSOXD
 70
     0
  9
$DIMSAH
 70
     0
  9
$DIMBLK1
  1

  9
$DIMBLK2
  1

  9
$DIMSTYLE
  2
ISO-25
  9
$DIMCLRD
 70
     0
  9
$DIMCLRE
 70
     0
  9
$DIMCLRT
 70
     0
  9
$DIMTFAC
 40
1.0
  9
$DIMGAP
 40
0.625
  9
$DIMJUST
 70
     0
  9
$DIMSD1
 70
     0
  9
$DIMSD2
 70
     0
  9
$DIMTOLJ
 70
     0
  9
$DIMTZIN
 70
     8
  9
$DIMALTZ
 70
     0
  9
$DIMALTTZ
 70
     0
  9
$DIMFIT
 70
     3
  9
$DIMUPT
 70
     0
  9
$DIMUNIT
 70
     2
  9
$DIMDEC
 70
     2
  9
$DIMTDEC
 70
     2
  9
$DIMALTU
 70
     2
  9
$DIMALTTD
 70
     3
  9
$DIMTXSTY
  7
STANDARD
  9
$DIMAUNIT
 70
     0
  9
$LUNITS
 70
     2
  9
$LUPREC
 70
     4
  9
$SKETCHINC
 40
1.0
  9
$FILLETRAD
 40
10.0
  9
$AUNITS
 70
     0
  9
$AUPREC
 70
     0
  9
$MENU
  1
.
  9
$ELEVATION
 40
0.0
  9
$PELEVATION
 40
0.0
  9
$THICKNESS
 40
0.0
  9
$LIMCHECK
 70
     0
  9
$CHAMFERA
 40
0.0
  9
$CHAMFERB
 40
0.0
  9
$CHAMFERC
 40
0.0
  9
$CHAMFERD
 40
0.0
  9
$SKPOLY
 70
     0
  9
$TDCREATE
 40
2458919.680555556
  9
$TDUPDATE
 40
2458919.642768137
  9
$TDINDWG
 40
0.0000000116
  9
$TDUSRTIMER
 40
0.0000000116
  9
$USRTIMER
 70
     1
  9
$ANGBASE
 50
0.0
  9
$ANGDIR
 70
     0
  9
$PDMODE
 70
     0
  9
$PDSIZE
 40
0.0
  9
$PLINEWID
 40
0.0
  9
$COORDS
 70
     1
  9
$SPLFRAME
 70
     0
  9
$SPLINETYPE
 70
     6
  9
$SPLINESEGS
 70
     8
  9
$ATTDIA
 70
     0
  9
$ATTREQ
 70
     1
  9
$HANDLING
 70
     1
  9
$HANDSEED
  5
1D7
  9
$SURFTAB1
 70
     6
  9
$SURFTAB2
 70
     6
  9
$SURFTYPE
 70
     6
  9
$SURFU
 70
     6
  9
$SURFV
 70
     6
  9
$UCSNAME
  2

  9
$UCSORG
 10
0.0
 20
0.0
 30
0.0
  9
$UCSXDIR
 10
1.0
 20
0.0
 30
0.0
  9
$UCSYDIR
 10
0.0
 20
1.0
 30
0.0
  9
$PUCSNAME
  2

  9
$PUCSORG
 10
0.0
 20
0.0
 30
0.0
  9
$PUCSXDIR
 10
1.0
 20
0.0
 30
0.0
  9
$PUCSYDIR
 10
0.0
 20
1.0
 30
0.0
  9
$USERI1
 70
     0
  9
$USERI2
 70
     0
  9
$USERI3
 70
     0
  9
$USERI4
 70
     0
  9
$USERI5
 70
     0
  9
$USERR1
 40
0.0
  9
$USERR2
 40
0.0
  9
$USERR3
 40
0.0
  9
$USERR4
 40
0.0
  9
$USERR5
 40
0.0
  9
$WORLDVIEW
 70
     1
  9
$SHADEDGE
 70
     3
  9
$SHADEDIF
 70
    70
  9
$TILEMODE
 70
     1
  9
$MAXACTVP
 70
    64
  9
$PINSBASE
 10
0.0
 20
0.0
 30
0.0
  9
$PLIMCHECK
 70
     0
  9
$PEXTMIN
 10
1.000000000000000E+20
 20
1.000000000000000E+20
 30
1.000000000000000E+20
  9
$PEXTMAX
 10
-1.000000000000000E+20
 20
-1.000000000000000E+20
 30
-1.000000000000000E+20
  9
$PLIMMIN
 10
0.0
 20
0.0
  9
$PLIMMAX
 10
420.0
 20
297.0
  9
$UNITMODE
 70
     0
  9
$VISRETAIN
 70
     1
  9
$PLINEGEN
 70
     0
  9
$PSLTSCALE
 70
     1
  9
$TREEDEPTH
 70
  3020
  9
$PICKSTYLE
 70
     1
  9
$CMLSTYLE
  2
STANDARD
  9
$CMLJUST
 70
     0
  9
$CMLSCALE
 40
20.0
  9
$PROXYGRAPHICS
 70
     1
  9
$MEASUREMENT
 70
     1
  0
ENDSEC
  0
SECTION
  2
CLASSES
  0
CLASS
  1
ACDBDICTIONARYWDFLT
  2
AcDbDictionaryWithDefault
  3
ObjectDBX Classes
 90
        0
280
     0
281
     0
  0
CLASS
  1
VISUALSTYLE
  2
AcDbVisualStyle
  3
ObjectDBX Classes
 90
     4095
280
     0
281
     0
  0
CLASS
  1
MATERIAL
  2
AcDbMaterial
  3
ObjectDBX Classes
 90
     1153
280
     0
281
     0
  0
CLASS
  1
SCALE
  2
AcDbScale
  3
ObjectDBX Classes
 90
     1153
280
     0
281
     0
  0
CLASS
  1
TABLESTYLE
  2
AcDbTableStyle
  3
ObjectDBX Classes
 90
     4095
280
     0
281
     0
  0
CLASS
  1
MLEADERSTYLE
  2
AcDbMLeaderStyle
  3
ACDB_MLEADERSTYLE_CLASS
 90
     4095
280
     0
281
     0
  0
CLASS
  1
SUN
  2
AcDbSun
  3
SCENEOE
 90
     1153
280
     0
281
     0
  0
CLASS
  1
DICTIONARYVAR
  2
AcDbDictionaryVar
  3
ObjectDBX Classes
 90
        0
280
     0
281
     0
  0
CLASS
  1
XRECORD
  2
AcDbXrecord
  3
ObjectDBX Classes
 90
        0
280
     0
281
     0
  0
CLASS
  1
LWPOLYLINE
  2
AcDbPolyline
  3
ObjectDBX Classes
 90
        0
280
     0
281
     1
  0
CLASS
  1
HATCH
  2
AcDbHatch
  3
ObjectDBX Classes
 90
        0
280
     0
281
     1
  0
CLASS
  1
ACDBPLACEHOLDER
  2
AcDbPlaceHolder
  3
ObjectDBX Classes
 90
        0
280
     0
281
     0
  0
CLASS
  1
LAYOUT
  2
AcDbLayout
  3
ObjectDBX Classes
 90
        0
280
     0
281
     0
  0
ENDSEC
  0
SECTION
  2
TABLES
  0
TABLE
  2
VPORT
  5
8
102
{ACAD_XDICTIONARY
360
1CC
102
}
330
0
100
AcDbSymbolTable
 70
     1
  0
VPORT
  5
29
330
8
100
AcDbSymbolTableRecord
100
AcDbViewportTableRecord
  2
*ACTIVE
 70
     0
 10
0.0
 20
0.0
 11
1.0
 21
1.0
 12
-76.07225943940001
 22
42.04879994914999
 13
0.0
 23
0.0
 14
10.0
 24
10.0
 15
10.0
 25
10.0
 16
0.0
 26
0.0
 36
1.0
 17
0.0
 27
0.0
 37
0.0
 40
101.487551896266
 41
1.911036800004748
 42
50.0
 43
0.0
 44
0.0
 50
0.0
 51
0.0
 71
     0
 72
   100
 73
     1
 74
     3
 75
     0
 76
     0
 77
     0
 78
     0
  0
ENDTAB
  0
TABLE
  2
LTYPE
  5
5
330
0
100
AcDbSymbolTable
 70
     2
  0
LTYPE
  5
14
330
5
100
AcDbSymbolTableRecord
100
AcDbLinetypeTableRecord
  2
BYBLOCK
 70
     0
  3

 72
    65
 73
     0
 40
0.0
  0
LTYPE
  5
15
330
5
100
AcDbSymbolTableRecord
100
AcDbLinetypeTableRecord
  2
BYLAYER
 70
     0
  3

 72
    65
 73
     0
 40
0.0
  0
LTYPE
  5
16
330
5
100
AcDbSymbolTableRecord
100
AcDbLinetypeTableRecord
  2
CONTINUOUS
 70
     0
  3
Solid line
 72
    65
 73
     0
 40
0.0
  0
LTYPE
  5
7A
330
5
100
AcDbSymbolTableRecord
100
AcDbLinetypeTableRecord
  2
PHL_THICK
 70
     0
  3
THICK
 72
    65
 73
     0
 40
0.0
  0
ENDTAB
  0
TABLE
  2
LAYER
  5
2
330
0
100
AcDbSymbolTable
 70
     2
  0
LAYER
  5
10
330
2
100
AcDbSymbolTableRecord
100
AcDbLayerTableRecord
  2
0
 70
     0
 62
     7
  6
CONTINUOUS
  0
LAYER
  5
79
330
2
100
AcDbSymbolTableRecord
100
AcDbLayerTableRecord
  2
PROJECTION
 70
     0
 62
     7
  6
CONTINUOUS
  0
ENDTAB
  0
TABLE
  2
STYLE
  5
3
330
0
100
AcDbSymbolTable
 70
     1
  0
STYLE
  5
11
330
3
100
AcDbSymbolTableRecord
100
AcDbTextStyleTableRecord
  2
STANDARD
 70
     0
 40
0.0
 41
1.0
 50
0.0
 71
     0
 42
2.5
  3
txt
  4

  0
ENDTAB
  0
TABLE
  2
VIEW
  5
6
330
0
100
AcDbSymbolTable
 70
     0
  0
ENDTAB
  0
TABLE
  2
UCS
  5
7
330
0
100
AcDbSymbolTable
 70
     0
  0
ENDTAB
  0
TABLE
  2
APPID
  5
9
330
0
100
AcDbSymbolTable
 70
     3
  0
APPID
  5
12
330
9
100
AcDbSymbolTableRecord
100
AcDbRegAppTableRecord
  2
ACAD
 70
     0
  0
APPID
  5
6E
330
9
100
AcDbSymbolTableRecord
100
AcDbRegAppTableRecord
  2
CCLAB
 70
     0
  0
APPID
  5
1D6
330
9
100
AcDbSymbolTableRecord
100
AcDbRegAppTableRecord
  2
ACAD_MLEADERVER
 70
     0
  0
ENDTAB
  0
TABLE
  2
DIMSTYLE
  5
A
330
0
100
AcDbSymbolTable
 70
     1
  0
DIMSTYLE
105
27
330
A
100
AcDbSymbolTableRecord
100
AcDbDimStyleTableRecord
  2
ISO-25
 70
     0
  3

  4

  5

  6

  7

 40
1.0
 41
2.5
 42
0.625
 43
3.75
 44
1.25
 45
0.0
 46
0.0
 47
0.0
 48
0.0
140
2.5
141
2.5
142
0.0
143
0.03937007874016
144
1.0
145
0.0
146
1.0
147
0.625
 71
     0
 72
     0
 73
     0
 74
     0
 75
     0
 76
     0
 77
     1
 78
     8
170
     0
171
     3
172
     1
173
     0
174
     0
175
     0
176
     0
177
     0
178
     0
270
     2
271
     2
272
     2
273
     2
274
     3
340
11
275
     0
280
     0
281
     0
282
     0
283
     0
284
     8
285
     0
286
     0
287
     3
288
     0
  0
ENDTAB
  0
TABLE
  2
BLOCK_RECORD
  5
1
330
0
100
AcDbSymbolTable
 70
     4
  0
BLOCK_RECORD
  5
1F
330
1
100
AcDbSymbolTableRecord
100
AcDbBlockTableRecord
  2
*MODEL_SPACE
  0
BLOCK_RECORD
  5
1B
330
1
100
AcDbSymbolTableRecord
100
AcDbBlockTableRecord
  2
*PAPER_SPACE
  0
ENDTAB
  0
ENDSEC
  0
SECTION
  2
BLOCKS
  0
BLOCK
  5
20
330
1F
100
AcDbEntity
  8
0
100
AcDbBlockBegin
  2
*MODEL_SPACE
 70
     0
 10
0.0
 20
0.0
 30
0.0
  3
*MODEL_SPACE
  1

  0
ENDBLK
  5
21
330
1F
100
AcDbEntity
  8
0
100
AcDbBlockEnd
  0
BLOCK
  5
1C
330
1B
100
AcDbEntity
 67
     1
  8
0
100
AcDbBlockBegin
  2
*PAPER_SPACE
 70
     0
 10
0.0
 20
0.0
 30
0.0
  3
*PAPER_SPACE
  1

  0
ENDBLK
  5
1D
330
1B
100
AcDbEntity
 67
     1
  8
0
100
AcDbBlockEnd
  0
ENDSEC
  0
SECTION
  2
ENTITIES
  0
LINE
  5
10E
330
1F
100
AcDbEntity
  8
PROJECTION
  6
PHL_THICK
 62
     7
100
AcDbLine
 10
12.483811
 20
-7.7
 30
0.0
 11
12.481876
 21
-6.009767
 31
0.0
  0
LINE
  5
10F
330
1F
100
AcDbEntity
  8
PROJECTION
  6
PHL_THICK
 62
     7
100
AcDbLine
 10
12.475223
 20
-0.199932
 30
0.0
 11
12.474994
 21
0.0
 31
0.0
  0
LINE
  5
110
330
1F
100
AcDbEntity
  8
PROJECTION
  6
PHL_THICK
 62
     7
100
AcDbLine
 10
12.621789
 20
-0.199928
 30
0.0
 11
12.62156
 21
0.0
 31
0.0
  0
LINE
  5
111
330
1F
100
AcDbEntity
  8
PROJECTION
  6
PHL_THICK
 62
     7
100
AcDbLine
 10
12.630378
 20
-7.7
 30
0.0
 11
12.628345
 21
-5.925222
 31
0.0
  0
LINE
  5
112
330
1F
100
AcDbEntity
  8
PROJECTION
  6
PHL_THICK
 62
     7
100
AcDbLine
 10
12.483811
 20
-7.7
 30
0.0
 11
12.471672
 21
-6.015657
 31
0.0
  0
LINE
  5
113
330
1F
100
AcDbEntity
  8
PROJECTION
  6
PHL_THICK
 62
     7
100
AcDbLine
 10
12.429758
 20
-0.199934
 30
0.0
 11
12.428317
 21
0.0
 31
0.0
  0
LINE
  5
114
330
1F
100
AcDbEntity
  8
PROJECTION
  6
PHL_THICK
 62
     7
100
AcDbLine
 10
12.630378
 20
-7.7
 30
0.0
 11
12.617631
 21
-5.931406
 31
0.0
  0
LINE
  5
115
330
1F
100
AcDbEntity
  8
PROJECTION
  6
PHL_THICK
 62
     7
100
AcDbLine
 10
12.576324
 20
-0.199929
 30
0.0
 11
12.574883
 21
0.0
 31
0.0
  0
LINE
  5
116
330
1F
100
AcDbEntity
  8
PROJECTION
  6
PHL_THICK
 62
     7
100
AcDbLine
 10
-130.50267
 20
89.591599
 30
0.0
 11
-130.524078
 21
90.0
 31
0.0
  0
LINE
  5
117
330
1F
100
AcDbEntity
  8
PROJECTION
  6
PHL_THICK
 62
     7
100
AcDbLine
 10
-19.440992
 20
36.514786
 30
0.0
 11
-22.91169
 21
88.0
 31
0.0
  0
LINE
  5
118
330
1F
100
AcDbEntity
  8
PROJECTION
  6
PHL_THICK
 62
     7
100
AcDbLine
 10
-82.097954
 20
87.470711
 30
0.0
 11
-82.099998
 21
87.5
 31
0.0
  0
LINE
  5
119
330
1F
100
AcDbEntity
  8
PROJECTION
  6
PHL_THICK
 62
     7
100
AcDbLine
 10
-75.597954
 20
87.68071
 30
0.0
 11
-75.599998
 21
87.709999
 31
0.0
  0
LINE
  5
11A
330
1F
100
AcDbEntity
  8
PROJECTION
  6
PHL_THICK
 62
     7
100
AcDbLine
 10
-80.002197
 20
57.5
 30
0.0
 11
-80.004242
 21
57.529289
 31
0.0
  0
LINE
  5
11B
330
1F
100
AcDbEntity
  8
PROJECTION
  6
PHL_THICK
 62
     7
100
AcDbLine
 10
-73.502197
 20
57.709999
 30
0.0
 11
-73.504242
 21
57.739288
 31
0.0
  0
LINE
  5
11C
330
1F
100
AcDbEntity
  8
PROJECTION
  6
PHL_THICK
 62
     7
100
AcDbLine
 10
-73.504242
 20
57.739288
 30
0.0
 11
-73.509186
 21
57.810001
 31
0.0
  0
LINE
  5
11D
330
1F
100
AcDbEntity
  8
PROJECTION
  6
PHL_THICK
 62
     7
100
AcDbLine
 10
-80.004242
 20
57.529289
 30
0.0
 11
-80.009186
 21
57.599998
 31
0.0
  0
LINE
  5
11E
330
1F
100
AcDbEntity
  8
PROJECTION
  6
PHL_THICK
 62
     7
100
AcDbLine
 10
-82.09301
 20
87.400002
 30
0.0
 11
-82.097954
 21
87.470711
 31
0.0
  0
LINE
  5
11F
330
1F
100
AcDbEntity
  8
PROJECTION
  6
PHL_THICK
 62
     7
100
AcDbLine
 10
-75.59301
 20
87.610001
 30
0.0
 11
-75.597954
 21
87.68071
 31
0.0
  0
LINE
  5
120
330
1F
100
AcDbEntity
  8
PROJECTION
  6
PHL_THICK
 62
     7
100
AcDbLine
 10
-80.009186
 20
57.599998
 30
0.0
 11
-82.09301
 21
87.400002
 31
0.0
  0
LINE
  5
121
330
1F
100
AcDbEntity
  8
PROJECTION
  6
PHL_THICK
 62
     7
100
AcDbLine
 10
-73.509186
 20
57.810001
 30
0.0
 11
-75.59301
 21
87.610001
 31
0.0
  0
LINE
  5
122
330
1F
100
AcDbEntity
  8
PROJECTION
  6
PHL_THICK
 62
     7
100
AcDbLine
 10
-16.341814
 20
11.3
 30
0.0
 11
-19.440992
 21
36.514786
 31
0.0
  0
LINE
  5
123
330
1F
100
AcDbEntity
  8
PROJECTION
  6
PHL_THICK
 62
     7
100
AcDbLine
 10
-170.0
 20
87.699997
 30
0.0
 11
-170.800003
 21
89.800003
 31
0.0
  0
LINE
  5
124
330
1F
100
AcDbEntity
  8
PROJECTION
  6
PHL_THICK
 62
     7
100
AcDbLine
 10
-170.0
 20
85.300003
 30
0.0
 11
-170.800003
 21
87.400002
 31
0.0
  0
LINE
  5
125
330
1F
100
AcDbEntity
  8
PROJECTION
  6
PHL_THICK
 62
     7
100
AcDbLine
 10
-170.0
 20
80.5
 30
0.0
 11
-170.800003
 21
82.599998
 31
0.0
  0
LINE
  5
126
330
1F
100
AcDbEntity
  8
PROJECTION
  6
PHL_THICK
 62
     7
100
AcDbLine
 10
-170.0
 20
82.900002
 30
0.0
 11
-170.800003
 21
85.0
 31
0.0
  0
LINE
  5
127
330
1F
100
AcDbEntity
  8
PROJECTION
  6
PHL_THICK
 62
     7
100
AcDbLine
 10
-130.127411
 20
82.40078
 30
0.0
 11
-131.034409
 21
84.451965
 31
0.0
  0
LINE
  5
128
330
1F
100
AcDbEntity
  8
PROJECTION
  6
PHL_THICK
 62
     7
100
AcDbLine
 10
-130.253006
 20
84.797493
 30
0.0
 11
-131.160019
 21
86.848679
 31
0.0
  0
LINE
  5
129
330
1F
100
AcDbEntity
  8
PROJECTION
  6
PHL_THICK
 62
     7
100
AcDbLine
 10
-130.0
 20
80.0
 30
0.0
 11
-130.908813
 21
82.055252
 31
0.0
  0
LINE
  5
12A
330
1F
100
AcDbEntity
  8
PROJECTION
  6
PHL_THICK
 62
     7
100
AcDbLine
 10
-130.378616
 20
87.194206
 30
0.0
 11
-131.285629
 21
89.245384
 31
0.0
  0
LINE
  5
12B
330
1F
100
AcDbEntity
  8
PROJECTION
  6
PHL_THICK
 62
     7
100
AcDbLine
 10
-130.524078
 20
90.0
 30
0.0
 11
-131.614258
 21
91.107971
 31
0.0
  0
LINE
  5
12C
330
1F
100
AcDbEntity
  8
PROJECTION
  6
PHL_THICK
 62
     7
100
AcDbLine
 10
-170.0
 20
90.300003
 30
0.0
 11
-171.070816
 21
91.370827
 31
0.0
  0
LINE
  5
12D
330
1F
100
AcDbEntity
  8
PROJECTION
  6
PHL_THICK
 62
     7
100
AcDbLine
 10
-155.003799
 20
85.985748
 30
0.0
 11
-156.501846
 21
87.221016
 31
0.0
  0
LINE
  5
12E
330
1F
100
AcDbEntity
  8
PROJECTION
  6
PHL_THICK
 62
     7
100
AcDbLine
 10
-12.807941
 20
-5.821562
 30
0.0
 11
-13.786684
 21
-5.256624
 31
0.0
  0
LINE
  5
12F
330
1F
100
AcDbEntity
  8
PROJECTION
  6
PHL_THICK
 62
     7
100
AcDbLine
 10
-156.693588
 20
85.029381
 30
0.0
 11
-159.224808
 21
85.250839
 31
0.0
  0
LINE
  5
130
330
1F
100
AcDbEntity
  8
PROJECTION
  6
PHL_THICK
 62
     7
100
AcDbLine
 10
-156.726151
 20
89.128532
 30
0.0
 11
-159.011124
 21
89.328445
 31
0.0
  0
LINE
  5
131
330
1F
100
AcDbEntity
  8
PROJECTION
  6
PHL_THICK
 62
     7
100
AcDbLine
 10
-156.501846
 20
87.221016
 30
0.0
 11
-159.109604
 21
87.449165
 31
0.0
  0
LINE
  5
132
330
1F
100
AcDbEntity
  8
PROJECTION
  6
PHL_THICK
 62
     7
100
AcDbLine
 10
-117.0
 20
88.778801
 30
0.0
 11
-119.528328
 21
89.0
 31
0.0
  0
LINE
  5
133
330
1F
100
AcDbEntity
  8
PROJECTION
  6
PHL_THICK
 62
     7
100
AcDbLine
 10
-12.630378
 20
-7.7
 30
0.0
 11
12.630378
 21
-7.7
 31
0.0
  0
LINE
  5
134
330
1F
100
AcDbEntity
  8
PROJECTION
  6
PHL_THICK
 62
     7
100
AcDbLine
 10
-12.807959
 20
-6.7
 30
0.0
 11
11.764669
 21
-6.7
 31
0.0
  0
LINE
  5
135
330
1F
100
AcDbEntity
  8
PROJECTION
  6
PHL_THICK
 62
     7
100
AcDbLine
 10
12.741365
 20
-6.7
 30
0.0
 11
12.807959
 21
-6.7
 31
0.0
  0
LINE
  5
136
330
1F
100
AcDbEntity
  8
PROJECTION
  6
PHL_THICK
 62
     7
100
AcDbLine
 10
12.629236
 20
-6.7
 30
0.0
 11
12.741365
 21
-6.7
 31
0.0
  0
LINE
  5
137
330
1F
100
AcDbEntity
  8
PROJECTION
  6
PHL_THICK
 62
     7
100
AcDbLine
 10
13.720091
 20
-5.256624
 30
0.0
 11
13.786684
 21
-5.256624
 31
0.0
  0
LINE
  5
138
330
1F
100
AcDbEntity
  8
PROJECTION
  6
PHL_THICK
 62
     7
100
AcDbLine
 10
-13.786684
 20
-4.7
 30
0.0
 11
12.999528
 21
-4.7
 31
0.0
  0
LINE
  5
139
330
1F
100
AcDbEntity
  8
PROJECTION
  6
PHL_THICK
 62
     7
100
AcDbLine
 10
12.99999
 20
-4.7
 30
0.0
 11
13.720091
 21
-4.7
 31
0.0
  0
LINE
  5
13A
330
1F
100
AcDbEntity
  8
PROJECTION
  6
PHL_THICK
 62
     7
100
AcDbLine
 10
13.720091
 20
-4.7
 30
0.0
 11
13.786684
 21
-4.7
 31
0.0
  0
LINE
  5
13B
330
1F
100
AcDbEntity
  8
PROJECTION
  6
PHL_THICK
 62
     7
100
AcDbLine
 10
-16.000471
 20
-0.2
 30
0.0
 11
14.099528
 21
-0.2
 31
0.0
  0
LINE
  5
13C
330
1F
100
AcDbEntity
  8
PROJECTION
  6
PHL_THICK
 62
     7
100
AcDbLine
 10
-16.000427
 20
0.0
 30
0.0
 11
-12.807959
 21
0.0
 31
0.0
  0
LINE
  5
13D
330
1F
100
AcDbEntity
  8
PROJECTION
  6
PHL_THICK
 62
     7
100
AcDbLine
 10
11.698076
 20
0.0
 30
0.0
 11
14.099572
 21
0.0
 31
0.0
  0
LINE
  5
13E
330
1F
100
AcDbEntity
  8
PROJECTION
  6
PHL_THICK
 62
     7
100
AcDbLine
 10
-12.5
 20
2.0
 30
0.0
 11
14.099572
 21
2.0
 31
0.0
  0
LINE
  5
13F
330
1F
100
AcDbEntity
  8
PROJECTION
  6
PHL_THICK
 62
     7
100
AcDbLine
 10
-16.000427
 20
11.0
 30
0.0
 11
-12.5
 21
11.0
 31
0.0
  0
LINE
  5
140
330
1F
100
AcDbEntity
  8
PROJECTION
  6
PHL_THICK
 62
     7
100
AcDbLine
 10
-18.950472
 20
11.3
 30
0.0
 11
-16.000471
 21
11.3
 31
0.0
  0
LINE
  5
141
330
1F
100
AcDbEntity
  8
PROJECTION
  6
PHL_THICK
 62
     7
100
AcDbLine
 10
15.0
 20
12.999391
 30
0.0
 11
15.148925
 21
12.999391
 31
0.0
  0
LINE
  5
142
330
1F
100
AcDbEntity
  8
PROJECTION
  6
PHL_THICK
 62
     7
100
AcDbLine
 10
18.44953
 20
16.299999
 30
0.0
 11
18.949528
 21
16.299999
 31
0.0
  0
LINE
  5
143
330
1F
100
AcDbEntity
  8
PROJECTION
  6
PHL_THICK
 62
     7
100
AcDbLine
 10
-80.002197
 20
57.5
 30
0.0
 11
-72.5
 21
57.5
 31
0.0
  0
LINE
  5
144
330
1F
100
AcDbEntity
  8
PROJECTION
  6
PHL_THICK
 62
     7
100
AcDbLine
 10
-80.009186
 20
57.599998
 30
0.0
 11
-72.5
 21
57.599998
 31
0.0
  0
LINE
  5
145
330
1F
100
AcDbEntity
  8
PROJECTION
  6
PHL_THICK
 62
     7
100
AcDbLine
 10
-73.502197
 20
57.709999
 30
0.0
 11
-66.0
 21
57.709999
 31
0.0
  0
LINE
  5
146
330
1F
100
AcDbEntity
  8
PROJECTION
  6
PHL_THICK
 62
     7
100
AcDbLine
 10
-73.509186
 20
57.810001
 30
0.0
 11
-66.0
 21
57.810001
 31
0.0
  0
LINE
  5
147
330
1F
100
AcDbEntity
  8
PROJECTION
  6
PHL_THICK
 62
     7
100
AcDbLine
 10
-170.0
 20
80.0
 30
0.0
 11
-159.5
 21
80.0
 31
0.0
  0
LINE
  5
148
330
1F
100
AcDbEntity
  8
PROJECTION
  6
PHL_THICK
 62
     7
100
AcDbLine
 10
-130.0
 20
80.0
 30
0.0
 11
-120.0
 21
80.0
 31
0.0
  0
LINE
  5
149
330
1F
100
AcDbEntity
  8
PROJECTION
  6
PHL_THICK
 62
     7
100
AcDbLine
 10
-82.09301
 20
87.400002
 30
0.0
 11
-75.576653
 21
87.400002
 31
0.0
  0
LINE
  5
14A
330
1F
100
AcDbEntity
  8
PROJECTION
  6
PHL_THICK
 62
     7
100
AcDbLine
 10
-82.099998
 20
87.5
 30
0.0
 11
-75.585075
 21
87.5
 31
0.0
  0
LINE
  5
14B
330
1F
100
AcDbEntity
  8
PROJECTION
  6
PHL_THICK
 62
     7
100
AcDbLine
 10
-75.59301
 20
87.610001
 30
0.0
 11
-66.0
 21
87.610001
 31
0.0
  0
LINE
  5
14C
330
1F
100
AcDbEntity
  8
PROJECTION
  6
PHL_THICK
 62
     7
100
AcDbLine
 10
-75.599998
 20
87.709999
 30
0.0
 11
-66.0
 21
87.709999
 31
0.0
  0
LINE
  5
14D
330
1F
100
AcDbEntity
  8
PROJECTION
  6
PHL_THICK
 62
     7
100
AcDbLine
 10
12.5
 20
2.0
 30
0.0
 11
13.0
 21
2.008728
 31
0.0
  0
LINE
  5
14E
330
1F
100
AcDbEntity
  8
PROJECTION
  6
PHL_THICK
 62
     7
100
AcDbLine
 10
-22.91169
 20
88.0
 30
0.0
 11
-12.5
 21
88.545654
 31
0.0
  0
LINE
  5
14F
330
1F
100
AcDbEntity
  8
PROJECTION
  6
PHL_THICK
 62
     7
100
AcDbLine
 10
-170.800003
 20
87.400002
 30
0.0
 11
-170.0
 21
87.699997
 31
0.0
  0
LINE
  5
150
330
1F
100
AcDbEntity
  8
PROJECTION
  6
PHL_THICK
 62
     7
100
AcDbLine
 10
-170.800003
 20
89.800003
 30
0.0
 11
-170.0
 21
90.099998
 31
0.0
  0
LINE
  5
151
330
1F
100
AcDbEntity
  8
PROJECTION
  6
PHL_THICK
 62
     7
100
AcDbLine
 10
-170.800003
 20
85.0
 30
0.0
 11
-170.0
 21
85.300003
 31
0.0
  0
LINE
  5
152
330
1F
100
AcDbEntity
  8
PROJECTION
  6
PHL_THICK
 62
     7
100
AcDbLine
 10
-170.800003
 20
82.599998
 30
0.0
 11
-170.0
 21
82.900002
 31
0.0
  0
LINE
  5
153
330
1F
100
AcDbEntity
  8
PROJECTION
  6
PHL_THICK
 62
     7
100
AcDbLine
 10
-131.160019
 20
86.848679
 30
0.0
 11
-130.378616
 21
87.194206
 31
0.0
  0
LINE
  5
154
330
1F
100
AcDbEntity
  8
PROJECTION
  6
PHL_THICK
 62
     7
100
AcDbLine
 10
-131.285629
 20
89.245384
 30
0.0
 11
-130.50267
 21
89.591599
 31
0.0
  0
LINE
  5
155
330
1F
100
AcDbEntity
  8
PROJECTION
  6
PHL_THICK
 62
     7
100
AcDbLine
 10
-130.908813
 20
82.055252
 30
0.0
 11
-130.127411
 21
82.40078
 31
0.0
  0
LINE
  5
156
330
1F
100
AcDbEntity
  8
PROJECTION
  6
PHL_THICK
 62
     7
100
AcDbLine
 10
-131.034409
 20
84.451965
 30
0.0
 11
-130.253006
 21
84.797493
 31
0.0
  0
LINE
  5
157
330
1F
100
AcDbEntity
  8
PROJECTION
  6
PHL_THICK
 62
     7
100
AcDbLine
 10
-156.693588
 20
85.029381
 30
0.0
 11
-155.003799
 21
85.985748
 31
0.0
  0
LINE
  5
158
330
1F
100
AcDbEntity
  8
PROJECTION
  6
PHL_THICK
 62
     7
100
AcDbLine
 10
12.03282
 20
-6.23053
 30
0.0
 11
13.720091
 21
-5.256624
 31
0.0
  0
LINE
  5
159
330
1F
100
AcDbEntity
  8
PROJECTION
  6
PHL_THICK
 62
     7
100
AcDbLine
 10
12.80861
 20
-5.821176
 30
0.0
 11
13.786684
 21
-5.256624
 31
0.0
  0
LINE
  5
15A
330
1F
100
AcDbEntity
  8
PROJECTION
  6
PHL_THICK
 62
     7
100
AcDbLine
 10
12.808165
 20
-5.821434
 30
0.0
 11
13.786684
 21
-5.256624
 31
0.0
  0
LINE
  5
15B
330
1F
100
AcDbEntity
  8
PROJECTION
  6
PHL_THICK
 62
     7
100
AcDbLine
 10
12.032544
 20
-6.269128
 30
0.0
 11
13.786684
 21
-5.256624
 31
0.0
  0
LINE
  5
15C
330
1F
100
AcDbEntity
  8
PROJECTION
  6
PHL_THICK
 62
     7
100
AcDbLine
 10
12.809278
 20
-5.82079
 30
0.0
 11
13.786684
 21
-5.256624
 31
0.0
  0
LINE
  5
15D
330
1F
100
AcDbEntity
  8
PROJECTION
  6
PHL_THICK
 62
     7
100
AcDbLine
 10
12.808388
 20
-5.821305
 30
0.0
 11
13.786684
 21
-5.256624
 31
0.0
  0
LINE
  5
15E
330
1F
100
AcDbEntity
  8
PROJECTION
  6
PHL_THICK
 62
     7
100
AcDbLine
 10
12.808833
 20
-5.821048
 30
0.0
 11
13.786684
 21
-5.256624
 31
0.0
  0
LINE
  5
15F
330
1F
100
AcDbEntity
  8
PROJECTION
  6
PHL_THICK
 62
     7
100
AcDbLine
 10
12.809502
 20
-5.820662
 30
0.0
 11
13.786684
 21
-5.256624
 31
0.0
  0
LINE
  5
160
330
1F
100
AcDbEntity
  8
PROJECTION
  6
PHL_THICK
 62
     7
100
AcDbLine
 10
14.099528
 20
11.95
 30
0.0
 11
16.52454
 21
14.375
 31
0.0
  0
LINE
  5
161
330
1F
100
AcDbEntity
  8
PROJECTION
  6
PHL_THICK
 62
     7
100
AcDbLine
 10
13.0
 20
10.999391
 30
0.0
 11
15.0
 21
12.999391
 31
0.0
  0
LINE
  5
162
330
1F
100
AcDbEntity
  8
PROJECTION
  6
PHL_THICK
 62
     7
100
AcDbLine
 10
16.52454
 20
14.375
 30
0.0
 11
18.44953
 21
16.299999
 31
0.0
  0
LINE
  5
163
330
1F
100
AcDbEntity
  8
PROJECTION
  6
PHL_THICK
 62
     7
100
AcDbLine
 10
-117.0
 20
88.778801
 30
0.0
 11
-116.893158
 21
90.0
 31
0.0
  0
LINE
  5
164
330
1F
100
AcDbEntity
  8
PROJECTION
  6
PHL_THICK
 62
     7
100
AcDbLine
 10
-159.5
 20
80.0
 30
0.0
 11
-159.224808
 21
85.250839
 31
0.0
  0
LINE
  5
165
330
1F
100
AcDbEntity
  8
PROJECTION
  6
PHL_THICK
 62
     7
100
AcDbLine
 10
-120.0
 20
80.0
 30
0.0
 11
-119.528328
 21
89.0
 31
0.0
  0
LINE
  5
166
330
1F
100
AcDbEntity
  8
PROJECTION
  6
PHL_THICK
 62
     7
100
AcDbLine
 10
-159.109604
 20
87.449165
 30
0.0
 11
-159.011124
 21
89.328445
 31
0.0
  0
LINE
  5
167
330
1F
100
AcDbEntity
  8
PROJECTION
  6
PHL_THICK
 62
     7
100
AcDbLine
 10
11.92971
 20
-0.19995
 30
0.0
 11
11.931152
 21
0.0
 31
0.0
  0
LINE
  5
168
330
1F
100
AcDbEntity
  8
PROJECTION
  6
PHL_THICK
 62
     7
100
AcDbLine
 10
12.022223
 20
-7.7
 30
0.0
 11
12.043845
 21
-4.699946
 31
0.0
  0
LINE
  5
169
330
1F
100
AcDbEntity
  8
PROJECTION
  6
PHL_THICK
 62
     7
100
AcDbLine
 10
12.076277
 20
-0.199945
 30
0.0
 11
12.077718
 21
0.0
 31
0.0
  0
LINE
  5
16A
330
1F
100
AcDbEntity
  8
PROJECTION
  6
PHL_THICK
 62
     7
100
AcDbLine
 10
11.875658
 20
-7.7
 30
0.0
 11
11.897279
 21
-4.699951
 31
0.0
  0
LINE
  5
16B
330
1F
100
AcDbEntity
  8
PROJECTION
  6
PHL_THICK
 62
     7
100
AcDbLine
 10
11.884246
 20
-0.199951
 30
0.0
 11
11.884476
 21
0.0
 31
0.0
  0
LINE
  5
16C
330
1F
100
AcDbEntity
  8
PROJECTION
  6
PHL_THICK
 62
     7
100
AcDbLine
 10
-12.630378
 20
-7.7
 30
0.0
 11
-12.629232
 21
-6.699995
 31
0.0
  0
LINE
  5
16D
330
1F
100
AcDbEntity
  8
PROJECTION
  6
PHL_THICK
 62
     7
100
AcDbLine
 10
12.022223
 20
-7.7
 30
0.0
 11
12.02566
 21
-4.699946
 31
0.0
  0
LINE
  5
16E
330
1F
100
AcDbEntity
  8
PROJECTION
  6
PHL_THICK
 62
     7
100
AcDbLine
 10
12.030812
 20
-0.199946
 30
0.0
 11
12.031041
 21
0.0
 31
0.0
  0
LINE
  5
16F
330
1F
100
AcDbEntity
  8
PROJECTION
  6
PHL_THICK
 62
     7
100
AcDbLine
 10
11.875658
 20
-7.7
 30
0.0
 11
11.879093
 21
-4.699951
 31
0.0
  0
LINE
  5
170
330
1F
100
AcDbEntity
  8
PROJECTION
  6
PHL_THICK
 62
     7
100
AcDbLine
 10
-170.0
 20
90.099998
 30
0.0
 11
-170.0
 21
90.300003
 31
0.0
  0
LINE
  5
171
330
1F
100
AcDbEntity
  8
PROJECTION
  6
PHL_THICK
 62
     7
100
AcDbLine
 10
-170.0
 20
80.0
 30
0.0
 11
-170.0
 21
80.5
 31
0.0
  0
LINE
  5
172
330
1F
100
AcDbEntity
  8
PROJECTION
  6
PHL_THICK
 62
     7
100
AcDbLine
 10
-156.399994
 20
89.427391
 30
0.0
 11
-156.399994
 21
90.300003
 31
0.0
  0
LINE
  5
173
330
1F
100
AcDbEntity
  8
PROJECTION
  6
PHL_THICK
 62
     7
100
AcDbLine
 10
-72.5
 20
57.5
 30
0.0
 11
-72.5
 21
57.711533
 31
0.0
  0
LINE
  5
174
330
1F
100
AcDbEntity
  8
PROJECTION
  6
PHL_THICK
 62
     7
100
AcDbLine
 10
-66.0
 20
57.709999
 30
0.0
 11
-66.0
 21
87.709999
 31
0.0
  0
LINE
  5
175
330
1F
100
AcDbEntity
  8
PROJECTION
  6
PHL_THICK
 62
     7
100
AcDbLine
 10
-18.950472
 20
0.527019
 30
0.0
 11
-18.950472
 21
4.922502
 31
0.0
  0
LINE
  5
176
330
1F
100
AcDbEntity
  8
PROJECTION
  6
PHL_THICK
 62
     7
100
AcDbLine
 10
-18.950472
 20
7.677498
 30
0.0
 11
-18.950472
 21
11.3
 31
0.0
  0
LINE
  5
177
330
1F
100
AcDbEntity
  8
PROJECTION
  6
PHL_THICK
 62
     7
100
AcDbLine
 10
-16.000471
 20
-0.2
 30
0.0
 11
-16.000471
 21
11.3
 31
0.0
  0
LINE
  5
178
330
1F
100
AcDbEntity
  8
PROJECTION
  6
PHL_THICK
 62
     7
100
AcDbLine
 10
-14.099597
 20
-0.2
 30
0.0
 11
-14.099597
 21
0.00007
 31
0.0
  0
LINE
  5
179
330
1F
100
AcDbEntity
  8
PROJECTION
  6
PHL_THICK
 62
     7
100
AcDbLine
 10
-13.786684
 20
-5.256624
 30
0.0
 11
-13.786684
 21
-4.7
 31
0.0
  0
LINE
  5
17A
330
1F
100
AcDbEntity
  8
PROJECTION
  6
PHL_THICK
 62
     7
100
AcDbLine
 10
-12.807959
 20
-0.199957
 30
0.0
 11
-12.807959
 21
0.0
 31
0.0
  0
LINE
  5
17B
330
1F
100
AcDbEntity
  8
PROJECTION
  6
PHL_THICK
 62
     7
100
AcDbLine
 10
-12.807959
 20
-6.7
 30
0.0
 11
-12.807959
 21
-5.821231
 31
0.0
  0
LINE
  5
17C
330
1F
100
AcDbEntity
  8
PROJECTION
  6
PHL_THICK
 62
     7
100
AcDbLine
 10
-12.807959
 20
-6.7
 30
0.0
 11
-12.807959
 21
-5.821231
 31
0.0
  0
LINE
  5
17D
330
1F
100
AcDbEntity
  8
PROJECTION
  6
PHL_THICK
 62
     7
100
AcDbLine
 10
-12.807959
 20
-6.7
 30
0.0
 11
-12.807959
 21
-5.821231
 31
0.0
  0
LINE
  5
17E
330
1F
100
AcDbEntity
  8
PROJECTION
  6
PHL_THICK
 62
     7
100
AcDbLine
 10
-12.807959
 20
-6.7
 30
0.0
 11
-12.807959
 21
-4.699957
 31
0.0
  0
LINE
  5
17F
330
1F
100
AcDbEntity
  8
PROJECTION
  6
PHL_THICK
 62
     7
100
AcDbLine
 10
-12.807959
 20
-6.7
 30
0.0
 11
-12.807959
 21
-5.821231
 31
0.0
  0
LINE
  5
180
330
1F
100
AcDbEntity
  8
PROJECTION
  6
PHL_THICK
 62
     7
100
AcDbLine
 10
-12.807959
 20
-6.7
 30
0.0
 11
-12.807959
 21
-5.821231
 31
0.0
  0
LINE
  5
181
330
1F
100
AcDbEntity
  8
PROJECTION
  6
PHL_THICK
 62
     7
100
AcDbLine
 10
-12.807959
 20
-6.7
 30
0.0
 11
-12.807959
 21
-5.821231
 31
0.0
  0
LINE
  5
182
330
1F
100
AcDbEntity
  8
PROJECTION
  6
PHL_THICK
 62
     7
100
AcDbLine
 10
-12.807959
 20
-6.7
 30
0.0
 11
-12.807959
 21
-5.821231
 31
0.0
  0
LINE
  5
183
330
1F
100
AcDbEntity
  8
PROJECTION
  6
PHL_THICK
 62
     7
100
AcDbLine
 10
-12.5
 20
2.0
 30
0.0
 11
-12.5
 21
88.545654
 31
0.0
  0
LINE
  5
184
330
1F
100
AcDbEntity
  8
PROJECTION
  6
PHL_THICK
 62
     7
100
AcDbLine
 10
11.698076
 20
-6.7
 30
0.0
 11
11.698076
 21
-4.699957
 31
0.0
  0
LINE
  5
185
330
1F
100
AcDbEntity
  8
PROJECTION
  6
PHL_THICK
 62
     7
100
AcDbLine
 10
11.698076
 20
-0.199957
 30
0.0
 11
11.698076
 21
0.0
 31
0.0
  0
LINE
  5
186
330
1F
100
AcDbEntity
  8
PROJECTION
  6
PHL_THICK
 62
     7
100
AcDbLine
 10
11.764669
 20
-0.199955
 30
0.0
 11
11.764669
 21
0.0
 31
0.0
  0
LINE
  5
187
330
1F
100
AcDbEntity
  8
PROJECTION
  6
PHL_THICK
 62
     7
100
AcDbLine
 10
11.764669
 20
-6.7
 30
0.0
 11
11.764669
 21
-4.699955
 31
0.0
  0
LINE
  5
188
330
1F
100
AcDbEntity
  8
PROJECTION
  6
PHL_THICK
 62
     7
100
AcDbLine
 10
12.219721
 20
-0.199941
 30
0.0
 11
12.219721
 21
0.0
 31
0.0
  0
LINE
  5
189
330
1F
100
AcDbEntity
  8
PROJECTION
  6
PHL_THICK
 62
     7
100
AcDbLine
 10
12.286314
 20
-0.199938
 30
0.0
 11
12.286314
 21
0.0
 31
0.0
  0
LINE
  5
18A
330
1F
100
AcDbEntity
  8
PROJECTION
  6
PHL_THICK
 62
     7
100
AcDbLine
 10
12.741365
 20
-6.7
 30
0.0
 11
12.741365
 21
-5.859984
 31
0.0
  0
LINE
  5
18B
330
1F
100
AcDbEntity
  8
PROJECTION
  6
PHL_THICK
 62
     7
100
AcDbLine
 10
12.741365
 20
-0.199924
 30
0.0
 11
12.741365
 21
0.0
 31
0.0
  0
LINE
  5
18C
330
1F
100
AcDbEntity
  8
PROJECTION
  6
PHL_THICK
 62
     7
100
AcDbLine
 10
12.807959
 20
-0.199922
 30
0.0
 11
12.807959
 21
0.0
 31
0.0
  0
LINE
  5
18D
330
1F
100
AcDbEntity
  8
PROJECTION
  6
PHL_THICK
 62
     7
100
AcDbLine
 10
12.807959
 20
-6.7
 30
0.0
 11
12.807959
 21
-5.821546
 31
0.0
  0
LINE
  5
18E
330
1F
100
AcDbEntity
  8
PROJECTION
  6
PHL_THICK
 62
     7
100
AcDbLine
 10
13.0
 20
2.008728
 30
0.0
 11
13.0
 21
10.999391
 31
0.0
  0
LINE
  5
18F
330
1F
100
AcDbEntity
  8
PROJECTION
  6
PHL_THICK
 62
     7
100
AcDbLine
 10
13.720091
 20
-5.256624
 30
0.0
 11
13.720091
 21
-4.7
 31
0.0
  0
LINE
  5
190
330
1F
100
AcDbEntity
  8
PROJECTION
  6
PHL_THICK
 62
     7
100
AcDbLine
 10
13.786684
 20
-5.256624
 30
0.0
 11
13.786684
 21
-4.7
 31
0.0
  0
LINE
  5
191
330
1F
100
AcDbEntity
  8
PROJECTION
  6
PHL_THICK
 62
     7
100
AcDbLine
 10
14.099528
 20
-4.598305
 30
0.0
 11
14.099528
 21
11.95
 31
0.0
  0
LINE
  5
192
330
1F
100
AcDbEntity
  8
PROJECTION
  6
PHL_THICK
 62
     7
100
AcDbLine
 10
16.52454
 20
-3.555345
 30
0.0
 11
16.52454
 21
14.375
 31
0.0
  0
LINE
  5
193
330
1F
100
AcDbEntity
  8
PROJECTION
  6
PHL_THICK
 62
     7
100
AcDbLine
 10
18.949528
 20
0.527019
 30
0.0
 11
18.949528
 21
16.299999
 31
0.0
  0
ARC
  5
194
330
1F
100
AcDbEntity
  8
PROJECTION
  6
PHL_THICK
 62
     7
100
AcDbCircle
 10
-171.5
 20
15.046667
 30
0.0
 40
76.753333
100
AcDbArc
 50
78.65395170109998
 51
89.54617216500002
  0
ARC
  5
195
330
1F
100
AcDbEntity
  8
PROJECTION
  6
PHL_THICK
 62
     7
100
AcDbCircle
 10
-170.894047
 20
91.5476
 30
0.0
 40
0.2499998983
100
AcDbArc
 50
89.54449678440318
 51
225.0006892581989
  0
ARC
  5
196
330
1F
100
AcDbEntity
  8
PROJECTION
  6
PHL_THICK
 62
     7
100
AcDbCircle
 10
-156.7
 20
89.427393
 30
0.0
 40
0.3
100
AcDbArc
 50
264.9993077642006
 51
359.999713895401
  0
ARC
  5
197
330
1F
100
AcDbEntity
  8
PROJECTION
  6
PHL_THICK
 62
     7
100
AcDbCircle
 10
-131.436063
 20
91.283312
 30
0.0
 40
0.2499997278
100
AcDbArc
 50
93.08306507409746
 51
224.5373717496978
  0
ARC
  5
198
330
1F
100
AcDbEntity
  8
PROJECTION
  6
PHL_THICK
 62
     7
100
AcDbCircle
 10
-128.958822
 20
45.306179
 30
0.0
 40
46.2938209938
100
AcDbArc
 50
74.8924174389
 51
93.0840999661
  0
CIRCLE
  5
199
330
1F
100
AcDbEntity
  8
PROJECTION
  6
PHL_THICK
 62
     7
100
AcDbCircle
 10
-125.0
 20
85.8
 30
0.0
 40
2.75
  0
ARC
  5
19A
330
1F
100
AcDbEntity
  8
PROJECTION
  6
PHL_THICK
 62
     7
100
AcDbCircle
 10
-13.000472
 20
1.3
 30
0.0
 40
6.0
100
AcDbArc
 50
187.4019995034
 51
269.9999987445
  0
ARC
  5
19B
330
1F
100
AcDbEntity
  8
PROJECTION
  6
PHL_THICK
 62
     7
100
AcDbCircle
 10
-0.000472
 20
6.3
 30
0.0
 40
19.0000000195
100
AcDbArc
 50
355.8424144266
 51
4.157585286599999
  0
ARC
  5
19C
330
1F
100
AcDbEntity
  8
PROJECTION
  6
PHL_THICK
 62
     7
100
AcDbCircle
 10
-0.000472
 20
6.3
 30
0.0
 40
19.0000000195
100
AcDbArc
 50
175.8424147708
 51
184.157585516
  0
ELLIPSE
  5
19D
330
1F
100
AcDbEntity
  8
PROJECTION
  6
PHL_THICK
 62
     7
100
AcDbEllipse
 10
12.999523
 20
1.3
 30
0.0
 11
6.000027
 21
0.0
 31
0.0
210
0.0
220
0.0
230
1.0
 40
0.9999955000202498
 41
4.896765227440288
 42
5.340355099806342
  0
ARC
  5
19E
330
1F
100
AcDbEntity
  8
PROJECTION
  6
PHL_THICK
 62
     7
100
AcDbCircle
 10
12.999528
 20
1.3
 30
0.0
 40
6.0
100
AcDbArc
 50
269.9999987481
 51
280.5639801017
  0
ELLIPSE
  5
19F
330
1F
100
AcDbEntity
  8
PROJECTION
  6
PHL_THICK
 62
     7
100
AcDbEllipse
 10
12.999555
 20
1.3
 30
0.0
 11
3.673940397442059E-16
 21
6.0
 31
0.0
210
0.0
220
0.0
230
1.0
 40
0.9999954999999999
 41
3.769558708829368
 42
4.583199703557714
  0
ENDSEC
  0
SECTION
  2
OBJECTS
  0
DICTIONARY
  5
C
330
0
100
AcDbDictionary
  3
ACAD_GROUP
350
D
  3
ACAD_LAYOUT
350
1A
  3
ACAD_MATERIAL
350
43
  3
ACAD_MLEADERSTYLE
350
6B
  3
ACAD_MLINESTYLE
350
17
  3
ACAD_PLOTSETTINGS
350
19
  3
ACAD_SCALELIST
350
47
  3
ACAD_VISUALSTYLE
350
2A
  3
ACDBHEADERROUNDTRIPXREC
350
1A0
  3
ACDBVARIABLEDICTIONARY
350
1C1
  0
DICTIONARY
  5
1CC
330
8
100
AcDbDictionary
280
     1
  3
ACAD_XREC_ROUNDTRIP
360
1CD
  0
DICTIONARY
  5
D
102
{ACAD_REACTORS
330
C
102
}
330
C
100
AcDbDictionary
  0
DICTIONARY
  5
1A
102
{ACAD_REACTORS
330
C
102
}
330
C
100
AcDbDictionary
  0
DICTIONARY
  5
43
102
{ACAD_REACTORS
330
C
102
}
330
C
100
AcDbDictionary
  3
BYBLOCK
350
45
  3
BYLAYER
350
44
  3
GLOBAL
350
46
  0
DICTIONARY
  5
6B
102
{ACAD_REACTORS
330
C
102
}
330
C
100
AcDbDictionary
  3
STANDARD
350
6C
  0
DICTIONARY
  5
17
102
{ACAD_REACTORS
330
C
102
}
330
C
100
AcDbDictionary
  3
STANDARD
350
18
  0
DICTIONARY
  5
19
102
{ACAD_REACTORS
330
C
102
}
330
C
100
AcDbDictionary
  0
DICTIONARY
  5
47
102
{ACAD_REACTORS
330
C
102
}
330
C
100
AcDbDictionary
  3
A0
350
48
  3
A1
350
49
  3
A2
350
4A
  3
A3
350
4B
  3
A4
350
4C
  3
A5
350
4D
  3
A6
350
4E
  3
A7
350
4F
  3
A8
350
50
  3
A9
350
51
  3
B0
350
52
  3
B1
350
53
  3
B2
350
54
  3
B3
350
55
  3
B4
350
56
  3
B5
350
57
  3
B6
350
58
  3
B7
350
59
  3
B8
350
5A
  3
B9
350
5B
  3
C0
350
5C
  3
C1
350
5D
  3
C2
350
5E
  3
C3
350
5F
  3
C4
350
60
  3
C5
350
61
  3
C6
350
62
  3
C7
350
63
  3
C8
350
64
  3
C9
350
65
  3
D0
350
66
  3
D1
350
67
  3
D2
350
68
  0
DICTIONARY
  5
2A
102
{ACAD_REACTORS
330
C
102
}
330
C
100
AcDbDictionary
  3
2DWIREFRAME
350
2F
  3
BASIC
350
32
  3
BRIGHTEN
350
36
  3
COLORCHANGE
350
3A
  3
CONCEPTUAL
350
34
  3
DIM
350
35
  3
EDGECOLOROFF
350
3D
  3
FACEPATTERN
350
39
  3
FLAT
350
2B
  3
FLATWITHEDGES
350
2C
  3
GOURAUD
350
2D
  3
GOURAUDWITHEDGES
350
2E
  3
HIDDEN
350
31
  3
JITTEROFF
350
3B
  3
LINEPATTERN
350
38
  3
OVERHANGOFF
350
3C
  3
REALISTIC
350
33
  3
SHADED
350
42
  3
SHADED_WITH_EDGES
350
41
  3
SHADES_OF_GRAY
350
3E
  3
SKETCHY
350
3F
  3
THICKEN
350
37
  3
WIREFRAME
350
30
  3
X-RAY
350
40
  0
DICTIONARY
  5
1A0
102
{ACAD_REACTORS
330
C
102
}
330
C
100
AcDbDictionary
  3
CEPSNID
350
1AA
  3
CEPSNTYPE
350
1A9
  3
DIMSTYLEDATA
350
1C0
  3
FINGERPRINTGUID
350
1AB
  3
HYPERLINKBASE
350
1A3
  3
INSUNITS
350
1A8
  3
LAYOUTDICT
350
1A5
  3
LWETCUNION
350
1A7
  3
PLOTSETDICT
350
1A6
  3
PSVPSCALE
350
1AD
  3
PUCSBASE
350
1B0
  3
PUCSORGBACK
350
1B6
  3
PUCSORGBOTTOM
350
1B2
  3
PUCSORGFRONT
350
1B5
  3
PUCSORGLEFT
350
1B3
  3
PUCSORGRIGHT
350
1B4
  3
PUCSORGTOP
350
1B1
  3
PUCSORTHOREF
350
1AE
  3
PUCSORTHOVIEW
350
1AF
  3
STYLESHEET
350
1A4
  3
TSTACKALIGN
350
1A1
  3
TSTACKSIZE
350
1A2
  3
UCSBASE
350
1B9
  3
UCSORGBACK
350
1BF
  3
UCSORGBOTTOM
350
1BB
  3
UCSORGFRONT
350
1BE
  3
UCSORGLEFT
350
1BC
  3
UCSORGRIGHT
350
1BD
  3
UCSORGTOP
350
1BA
  3
UCSORTHOREF
350
1B7
  3
UCSORTHOVIEW
350
1B8
  3
VERSIONGUID
350
1AC
  0
DICTIONARY
  5
1C1
102
{ACAD_REACTORS
330
C
102
}
330
C
100
AcDbDictionary
  3
CANNOSCALE
350
1CE
  3
CENTEREXE
350
1C8
  3
CENTERLTYPEFILE
350
1C9
  3
CMLEADERSTYLE
350
1C3
  3
CTABLESTYLE
350
1C2
  3
DIMASSOC
350
1CA
  3
HIDETEXT
350
1CB
  3
MSLTSCALE
350
1CF
  3
PSOLHEIGHT
350
1C5
  3
PSOLWIDTH
350
1C4
  0
XRECORD
  5
1CD
102
{ACAD_REACTORS
330
1CC
102
}
330
1CC
100
AcDbXrecord
102
VTR_0.000_0.000_1.000_1.000_VISUALSTYLE
340
2F
102
VTR_0.000_0.000_1.000_1.000_GRIDDISPLAY
 70
     3
102
VTR_0.000_0.000_1.000_1.000_GRIDMAJOR
 70
     5
102
VTR_0.000_0.000_1.000_1.000_DEFAULTLIGHTING
280
     1
102
VTR_0.000_0.000_1.000_1.000_DEFAULTLIGHTINGTYPE
 70
     1
102
VTR_0.000_0.000_1.000_1.000_BRIGHTNESS
141
0.0
102
VTR_0.000_0.000_1.000_1.000_CONTRAST
142
0.0
  0
MATERIAL
  5
45
102
{ACAD_REACTORS
330
43
102
}
102
{ACAD_XDICTIONARY
360
1D2
102
}
330
43
100
AcDbMaterial
  1
BYBLOCK
  0
MATERIAL
  5
44
102
{ACAD_REACTORS
330
43
102
}
102
{ACAD_XDICTIONARY
360
1D0
102
}
330
43
100
AcDbMaterial
  1
BYLAYER
  0
MATERIAL
  5
46
102
{ACAD_REACTORS
330
43
102
}
102
{ACAD_XDICTIONARY
360
1D4
102
}
330
43
100
AcDbMaterial
  1
GLOBAL
  0
ACAD_PROXY_OBJECT
  5
6C
102
{ACAD_REACTORS
330
6B
102
}
330
6B
100
AcDbProxyObject
 90
      499
 91
      505
 93
      610
310
40901902A4063FBFFFFFE0000000000000020400000000000020404214DD185B99185C990000000000000104090141901A00000000000004100000000000000041025764000000000000039000
340
14
340
0
340
11
340
0
 94
        0
1001
ACAD_MLEADERVER
1070
     2
  0
MLINESTYLE
  5
18
102
{ACAD_REACTORS
330
17
102
}
330
17
100
AcDbMlineStyle
  2
Standard
 70
     0
  3

 62
   256
 51
90.0
 52
90.0
 71
     2
 49
0.5
 62
   256
  6
BYLAYER
 49
-0.5
 62
   256
  6
BYLAYER
  0
ACAD_PROXY_OBJECT
  5
48
102
{ACAD_REACTORS
330
47
102
}
330
47
100
AcDbProxyObject
 90
      499
 91
      503
 93
       41
310
903313A31580
  0
ACAD_PROXY_OBJECT
  5
49
102
{ACAD_REACTORS
330
47
102
}
330
47
100
AcDbProxyObject
 90
      499
 91
      503
 93
      105
310
903313A324000000000000004000
  0
ACAD_PROXY_OBJECT
  5
4A
102
{ACAD_REACTORS
330
47
102
}
330
47
100
AcDbProxyObject
 90
      499
 91
      503
 93
      105
310
903313A344000000000000104000
  0
ACAD_PROXY_OBJECT
  5
4B
102
{ACAD_REACTORS
330
47
102
}
330
47
100
AcDbProxyObject
 90
      499
 91
      503
 93
      105
310
903313A354000000000000144000
  0
ACAD_PROXY_OBJECT
  5
4C
102
{ACAD_REACTORS
330
47
102
}
330
47
100
AcDbProxyObject
 90
      499
 91
      503
 93
      105
310
903313A384000000000000204000
  0
ACAD_PROXY_OBJECT
  5
4D
102
{ACAD_REACTORS
330
47
102
}
330
47
100
AcDbProxyObject
 90
      499
 91
      503
 93
      113
310
904313A31304000000000000244000
  0
ACAD_PROXY_OBJECT
  5
4E
102
{ACAD_REACTORS
330
47
102
}
330
47
100
AcDbProxyObject
 90
      499
 91
      503
 93
      113
310
904313A31364000000000000304000
  0
ACAD_PROXY_OBJECT
  5
4F
102
{ACAD_REACTORS
330
47
102
}
330
47
100
AcDbProxyObject
 90
      499
 91
      503
 93
      113
310
904313A32304000000000000344000
  0
ACAD_PROXY_OBJECT
  5
50
102
{ACAD_REACTORS
330
47
102
}
330
47
100
AcDbProxyObject
 90
      499
 91
      503
 93
      113
310
904313A333040000000000003E4000
  0
ACAD_PROXY_OBJECT
  5
51
102
{ACAD_REACTORS
330
47
102
}
330
47
100
AcDbProxyObject
 90
      499
 91
      503
 93
      113
310
904313A34304000000000000444000
  0
ACAD_PROXY_OBJECT
  5
52
102
{ACAD_REACTORS
330
47
102
}
330
47
100
AcDbProxyObject
 90
      499
 91
      503
 93
      113
310
904313A35304000000000000494000
  0
ACAD_PROXY_OBJECT
  5
53
102
{ACAD_REACTORS
330
47
102
}
330
47
100
AcDbProxyObject
 90
      499
 91
      503
 93
      121
310
905313A3130304000000000000594000
  0
ACAD_PROXY_OBJECT
  5
54
102
{ACAD_REACTORS
330
47
102
}
330
47
100
AcDbProxyObject
 90
      499
 91
      503
 93
      105
310
903323A310000000000000010100
  0
ACAD_PROXY_OBJECT
  5
55
102
{ACAD_REACTORS
330
47
102
}
330
47
100
AcDbProxyObject
 90
      499
 91
      503
 93
      105
310
903343A310000000000000410100
  0
ACAD_PROXY_OBJECT
  5
56
102
{ACAD_REACTORS
330
47
102
}
330
47
100
AcDbProxyObject
 90
      499
 91
      503
 93
      105
310
903383A310000000000000810100
  0
ACAD_PROXY_OBJECT
  5
57
102
{ACAD_REACTORS
330
47
102
}
330
47
100
AcDbProxyObject
 90
      499
 91
      503
 93
      113
310
90431303A310000000000000910100
  0
ACAD_PROXY_OBJECT
  5
58
102
{ACAD_REACTORS
330
47
102
}
330
47
100
AcDbProxyObject
 90
      499
 91
      503
 93
      121
310
9053130303A310000000000001650100
  0
ACAD_PROXY_OBJECT
  5
59
102
{ACAD_REACTORS
330
47
102
}
330
47
100
AcDbProxyObject
 90
      499
 91
      503
 93
      257
310
90E312F31323822203D2031272D3022000000000000200FC000000000000284000
  0
ACAD_PROXY_OBJECT
  5
5A
102
{ACAD_REACTORS
330
47
102
}
330
47
100
AcDbProxyObject
 90
      499
 91
      503
 93
      249
310
90D312F363422203D2031272D3022000000000000240FC000000000000284000
  0
ACAD_PROXY_OBJECT
  5
5B
102
{ACAD_REACTORS
330
47
102
}
330
47
100
AcDbProxyObject
 90
      499
 91
      503
 93
      249
310
90D312F333222203D2031272D3022000000000000280FC000000000000284000
  0
ACAD_PROXY_OBJECT
  5
5C
102
{ACAD_REACTORS
330
47
102
}
330
47
100
AcDbProxyObject
 90
      499
 91
      503
 93
      249
310
90D312F313622203D2031272D30220000000000002C0FC000000000000284000
  0
ACAD_PROXY_OBJECT
  5
5D
102
{ACAD_REACTORS
330
47
102
}
330
47
100
AcDbProxyObject
 90
      499
 91
      503
 93
      249
310
90D332F333222203D2031272D30220000000000002E0FC000000000000284000
  0
ACAD_PROXY_OBJECT
  5
5E
102
{ACAD_REACTORS
330
47
102
}
330
47
100
AcDbProxyObject
 90
      499
 91
      503
 93
      241
310
90C312F3822203D2031272D3022000000000000300FC000000000000284000
  0
ACAD_PROXY_OBJECT
  5
5F
102
{ACAD_REACTORS
330
47
102
}
330
47
100
AcDbProxyObject
 90
      499
 91
      503
 93
      249
310
90D332F313622203D2031272D3022000000000000320FC000000000000284000
  0
ACAD_PROXY_OBJECT
  5
60
102
{ACAD_REACTORS
330
47
102
}
330
47
100
AcDbProxyObject
 90
      499
 91
      503
 93
      241
310
90C312F3422203D2031272D3022000000000000340FC000000000000284000
  0
ACAD_PROXY_OBJECT
  5
61
102
{ACAD_REACTORS
330
47
102
}
330
47
100
AcDbProxyObject
 90
      499
 91
      503
 93
      241
310
90C332F3822203D2031272D3022000000000000360FC000000000000284000
  0
ACAD_PROXY_OBJECT
  5
62
102
{ACAD_REACTORS
330
47
102
}
330
47
100
AcDbProxyObject
 90
      499
 91
      503
 93
      241
310
90C312F3222203D2031272D3022000000000000380FC000000000000284000
  0
ACAD_PROXY_OBJECT
  5
63
102
{ACAD_REACTORS
330
47
102
}
330
47
100
AcDbProxyObject
 90
      499
 91
      503
 93
      241
310
90C332F3422203D2031272D30220000000000003A0FC000000000000284000
  0
ACAD_PROXY_OBJECT
  5
64
102
{ACAD_REACTORS
330
47
102
}
330
47
100
AcDbProxyObject
 90
      499
 91
      503
 93
      161
310
90A3122203D2031272D30224000000000000284000
  0
ACAD_PROXY_OBJECT
  5
65
102
{ACAD_REACTORS
330
47
102
}
330
47
100
AcDbProxyObject
 90
      499
 91
      503
 93
      257
310
90E312D312F3222203D2031272D30220000000000003E0FC000000000000284000
  0
ACAD_PROXY_OBJECT
  5
66
102
{ACAD_REACTORS
330
47
102
}
330
47
100
AcDbProxyObject
 90
      499
 91
      503
 93
      225
310
90A3322203D2031272D302200000000000002100000000000000284000
  0
ACAD_PROXY_OBJECT
  5
67
102
{ACAD_REACTORS
330
47
102
}
330
47
100
AcDbProxyObject
 90
      499
 91
      503
 93
      225
310
90A3622203D2031272D302200000000000006100000000000000284000
  0
ACAD_PROXY_OBJECT
  5
68
102
{ACAD_REACTORS
330
47
102
}
330
47
100
AcDbProxyObject
 90
      499
 91
      503
 93
      249
310
90D31272D3022203D2031272D30220000000000000A100000000000000284000
  0
ACAD_PROXY_OBJECT
  5
2F
102
{ACAD_REACTORS
330
2A
102
}
330
2A
100
AcDbProxyObject
 90
      499
 91
      501
 93
      436
310
42CC9915DA5C99599C985B595049028333333333333E33F0000000000000F90107901411070040501600405405064090741402480A0340
1001
ACAD
1000
AcDbSavedByObjectVersion
1070
     0
  0
ACAD_PROXY_OBJECT
  5
32
102
{ACAD_REACTORS
330
2A
102
}
330
2A
100
AcDbProxyObject
 90
      499
 91
      501
 93
      388
310
4150985CDA58D07406404333333333333E33F0000000000000F90107A41107004050150841D405064090741402480A0350
1001
ACAD
1000
AcDbSavedByObjectVersion
1070
     0
  0
ACAD_PROXY_OBJECT
  5
36
102
{ACAD_REACTORS
330
2A
102
}
330
2A
100
AcDbProxyObject
 90
      499
 91
      501
 93
      428
310
42109C9A59DA1D195B90C409028333333333333E33F0000000000000F9010790141107004050150841D405064090741402480A029950
1001
ACAD
1000
AcDbSavedByObjectVersion
1070
     0
  0
ACAD_PROXY_OBJECT
  5
3A
102
{ACAD_REACTORS
330
2A
102
}
330
2A
100
AcDbProxyObject
 90
      499
 91
      501
 93
      452
310
42D0DBDB1BDC90DA185B99D95104090240C333333333333E33F0000000000000F90108901411070040501508421405064090741402480A0350
1001
ACAD
1000
AcDbSavedByObjectVersion
1070
     0
  0
ACAD_PROXY_OBJECT
  5
34
102
{ACAD_REACTORS
330
2A
102
}
330
2A
100
AcDbProxyObject
 90
      499
 91
      501
 93
      500
310
4290DBDB98D95C1D1D585B10940D028333333333333E33F0000000000000F90107902409070040501000000000018199010841D405064090740C02480A0340
1001
ACAD
1000
AcDbSavedByObjectVersion
1070
     0
  0
ACAD_PROXY_OBJECT
  5
35
102
{ACAD_REACTORS
330
2A
102
}
330
2A
100
AcDbProxyObject
 90
      499
 91
      501
 93
      412
310
40D11A5B50B409028333333333333E33F0000000000000F9010790141107004050150841D405064090741402480A02677FFFFFD0
1001
ACAD
1000
AcDbSavedByObjectVersion
1070
     0
  0
ACAD_PROXY_OBJECT
  5
3D
102
{ACAD_REACTORS
330
2A
102
}
330
2A
100
AcDbProxyObject
 90
      499
 91
      501
 93
      452
310
43115919D950DBDB1BDC93D999916409028333333333333E33F0000000000000F9010790141107004050150841D405064090741402480A0350
1001
ACAD
1000
AcDbSavedByObjectVersion
1070
     0
  0
ACAD_PROXY_OBJECT
  5
39
102
{ACAD_REACTORS
330
2A
102
}
330
2A
100
AcDbProxyObject
 90
      499
 91
      501
 93
      444
310
42D19858D95C185D1D195C9B90F409028333333333333E33F0000000000000F9010790141107004050150841D405064090741402480A0350
1001
ACAD
1000
AcDbSavedByObjectVersion
1070
     0
  0
ACAD_PROXY_OBJECT
  5
2B
102
{ACAD_REACTORS
330
2A
102
}
330
2A
100
AcDbProxyObject
 90
      499
 91
      501
 93
      380
310
41119B185D240901404333333333333E33F0000000000000F9010740A907004050150841D405064090741402480A1B50
1001
ACAD
1000
AcDbSavedByObjectVersion
1070
     0
  0
ACAD_PROXY_OBJECT
  5
2C
102
{ACAD_REACTORS
330
2A
102
}
330
2A
100
AcDbProxyObject
 90
      499
 91
      501
 93
      468
310
43519B185D15DA5D1A115919D95CD0140901404333333333333E33F0000000000000F90107409019070040501600405405064090741402480A1B50
1001
ACAD
1000
AcDbSavedByObjectVersion
1070
     0
  0
ACAD_PROXY_OBJECT
  5
2D
102
{ACAD_REACTORS
330
2A
102
}
330
2A
100
AcDbProxyObject
 90
      499
 91
      501
 93
      404
310
41D1DBDD5C985D5910240902404333333333333E33F0000000000000F9010740A9070040501641D405064090741402480A1B50
1001
ACAD
1000
AcDbSavedByObjectVersion
1070
     0
  0
ACAD_PROXY_OBJECT
  5
2E
102
{ACAD_REACTORS
330
2A
102
}
330
2A
100
AcDbProxyObject
 90
      499
 91
      501
 93
      492
310
4411DBDD5C985D5915DA5D1A115919D95CD0340902404333333333333E33F0000000000000F90107409019070040501600405405064090741402480A1B50
1001
ACAD
1000
AcDbSavedByObjectVersion
1070
     0
  0
ACAD_PROXY_OBJECT
  5
31
102
{ACAD_REACTORS
330
2A
102
}
330
2A
100
AcDbProxyObject
 90
      499
 91
      501
 93
      476
310
41921A5919195B90640502408333333333333E33F0000000000000F901079024090700405020000000000001110200405405064090740C02480A0340
1001
ACAD
1000
AcDbSavedByObjectVersion
1070
     0
  0
ACAD_PROXY_OBJECT
  5
3B
102
{ACAD_REACTORS
330
2A
102
}
330
2A
100
AcDbProxyObject
 90
      499
 91
      501
 93
      428
310
42529A5D1D195C93D999914409028333333333333E33F0000000000000F9010790141107004050150A41D405064090741402480A0350
1001
ACAD
1000
AcDbSavedByObjectVersion
1070
     0
  0
ACAD_PROXY_OBJECT
  5
38
102
{ACAD_REACTORS
330
2A
102
}
330
2A
100
AcDbProxyObject
 90
      499
 91
      501
 93
      444
310
42D31A5B995C185D1D195C9B90E409028333333333333E33F0000000000000F9010790141107004050750841D405064090741402483A0350
1001
ACAD
1000
AcDbSavedByObjectVersion
1070
     0
  0
ACAD_PROXY_OBJECT
  5
3C
102
{ACAD_REACTORS
330
2A
102
}
330
2A
100
AcDbProxyObject
 90
      499
 91
      501
 93
      444
310
42D3DD995C9A185B99D3D999915409028333333333333E33F0000000000000F9010790141107004050150941D405064090741402480A0350
1001
ACAD
1000
AcDbSavedByObjectVersion
1070
     0
  0
ACAD_PROXY_OBJECT
  5
33
102
{ACAD_REACTORS
330
2A
102
}
330
2A
100
AcDbProxyObject
 90
      499
 91
      501
 93
      428
310
425499585B1A5CDD1A58D08409038333333333333E33F0000000000000F9010740A907004050150800405405064090740C02480A1B40
1001
ACAD
1000
AcDbSavedByObjectVersion
1070
     0
  0
ACAD_PROXY_OBJECT
  5
42
102
{ACAD_REACTORS
330
2A
102
}
330
2A
100
AcDbProxyObject
 90
      499
 91
      501
 93
      420
310
4194DA1859195911B40902404333333333333E33F0000000000000F9010740A41107004050150800405405064090840C02480A0B40
1001
ACAD
1000
AcDbSavedByObjectVersion
1070
     0
  0
ACAD_PROXY_OBJECT
  5
41
102
{ACAD_REACTORS
330
2A
102
}
330
2A
100
AcDbProxyObject
 90
      499
 91
      501
 93
      516
310
4454DA18591959081DDA5D1A08195919D95CD1A40902404333333333333E33F0000000000000F901074090142907004050250800405405064090740C02480A0B40
1001
ACAD
1000
AcDbSavedByObjectVersion
1070
     0
  0
ACAD_PROXY_OBJECT
  5
3E
102
{ACAD_REACTORS
330
2A
102
}
330
2A
100
AcDbProxyObject
 90
      499
 91
      501
 93
      532
310
4394DA1859195CC81BD98811DC985E5174090240C333333333333E33F0000000000000F901079024090741D01000000000000111010841D405064090740C02480A0340
1001
ACAD
1000
AcDbSavedByObjectVersion
1070
     0
  0
ACAD_PROXY_OBJECT
  5
3F
102
{ACAD_REACTORS
330
2A
102
}
330
2A
100
AcDbProxyObject
 90
      499
 91
      501
 93
      476
310
41D4DAD95D18DA1E51840502408333333333333E33F0000000000000F901079024090741D01000000000000111010B41D405064090741802480A0340
1001
ACAD
1000
AcDbSavedByObjectVersion
1070
     0
  0
ACAD_PROXY_OBJECT
  5
37
102
{ACAD_REACTORS
330
2A
102
}
330
2A
100
AcDbProxyObject
 90
      499
 91
      501
 93
      412
310
41D51A1A58DAD95B90D409028333333333333E33F0000000000000F9010790141107004050150C41D405064090741402480A0350
1001
ACAD
1000
AcDbSavedByObjectVersion
1070
     0
  0
ACAD_PROXY_OBJECT
  5
30
102
{ACAD_REACTORS
330
2A
102
}
330
2A
100
AcDbProxyObject
 90
      499
 91
      501
 93
      420
310
4255DA5C99599C985B595059028333333333333E33F0000000000000F90107901411070040501600405405064090740C02480A0340
1001
ACAD
1000
AcDbSavedByObjectVersion
1070
     0
  0
ACAD_PROXY_OBJECT
  5
40
102
{ACAD_REACTORS
330
2A
102
}
330
2A
100
AcDbProxyObject
 90
      499
 91
      501
 93
      404
310
41560B54985E51940902404000000000000E03F0000000000000F9010740501907004050150841D405064090740C02480A1B40
1001
ACAD
1000
AcDbSavedByObjectVersion
1070
     0
  0
XRECORD
  5
1AA
102
{ACAD_REACTORS
330
1A0
102
}
330
1A0
100
AcDbXrecord
340
0
  0
XRECORD
  5
1A9
102
{ACAD_REACTORS
330
1A0
102
}
330
1A0
100
AcDbXrecord
 90
        0
  0
XRECORD
  5
1C0
102
{ACAD_REACTORS
330
1A0
102
}
330
1A0
100
AcDbXrecord
1000
DSTYLE
1002
{
1070
   340
340
11
1002
}
  0
XRECORD
  5
1AB
102
{ACAD_REACTORS
330
1A0
102
}
330
1A0
100
AcDbXrecord
  1
{BB1CEA6F-6E28-4D9C-B709-40165682730F}
  0
XRECORD
  5
1A3
102
{ACAD_REACTORS
330
1A0
102
}
330
1A0
100
AcDbXrecord
  1

  0
XRECORD
  5
1A8
102
{ACAD_REACTORS
330
1A0
102
}
330
1A0
100
AcDbXrecord
 90
        4
  0
XRECORD
  5
1A5
102
{ACAD_REACTORS
330
1A0
102
}
330
1A0
100
AcDbXrecord
340
1A
  0
XRECORD
  5
1A7
102
{ACAD_REACTORS
330
1A0
102
}
330
1A0
100
AcDbXrecord
 90
    10781
  0
XRECORD
  5
1A6
102
{ACAD_REACTORS
330
1A0
102
}
330
1A0
100
AcDbXrecord
340
19
  0
XRECORD
  5
1AD
102
{ACAD_REACTORS
330
1A0
102
}
330
1A0
100
AcDbXrecord
 40
0.0
  0
XRECORD
  5
1B0
102
{ACAD_REACTORS
330
1A0
102
}
330
1A0
100
AcDbXrecord
340
0
  0
XRECORD
  5
1B6
102
{ACAD_REACTORS
330
1A0
102
}
330
1A0
100
AcDbXrecord
 10
0.0
 20
0.0
 30
0.0
  0
XRECORD
  5
1B2
102
{ACAD_REACTORS
330
1A0
102
}
330
1A0
100
AcDbXrecord
 10
0.0
 20
0.0
 30
0.0
  0
XRECORD
  5
1B5
102
{ACAD_REACTORS
330
1A0
102
}
330
1A0
100
AcDbXrecord
 10
0.0
 20
0.0
 30
0.0
  0
XRECORD
  5
1B3
102
{ACAD_REACTORS
330
1A0
102
}
330
1A0
100
AcDbXrecord
 10
0.0
 20
0.0
 30
0.0
  0
XRECORD
  5
1B4
102
{ACAD_REACTORS
330
1A0
102
}
330
1A0
100
AcDbXrecord
 10
0.0
 20
0.0
 30
0.0
  0
XRECORD
  5
1B1
102
{ACAD_REACTORS
330
1A0
102
}
330
1A0
100
AcDbXrecord
 10
0.0
 20
0.0
 30
0.0
  0
XRECORD
  5
1AE
102
{ACAD_REACTORS
330
1A0
102
}
330
1A0
100
AcDbXrecord
340
0
  0
XRECORD
  5
1AF
102
{ACAD_REACTORS
330
1A0
102
}
330
1A0
100
AcDbXrecord
 70
     0
  0
XRECORD
  5
1A4
102
{ACAD_REACTORS
330
1A0
102
}
330
1A0
100
AcDbXrecord
  1

  0
XRECORD
  5
1A1
102
{ACAD_REACTORS
330
1A0
102
}
330
1A0
100
AcDbXrecord
 90
        1
  0
XRECORD
  5
1A2
102
{ACAD_REACTORS
330
1A0
102
}
330
1A0
100
AcDbXrecord
 90
       70
  0
XRECORD
  5
1B9
102
{ACAD_REACTORS
330
1A0
102
}
330
1A0
100
AcDbXrecord
340
0
  0
XRECORD
  5
1BF
102
{ACAD_REACTORS
330
1A0
102
}
330
1A0
100
AcDbXrecord
 10
0.0
 20
0.0
 30
0.0
  0
XRECORD
  5
1BB
102
{ACAD_REACTORS
330
1A0
102
}
330
1A0
100
AcDbXrecord
 10
0.0
 20
0.0
 30
0.0
  0
XRECORD
  5
1BE
102
{ACAD_REACTORS
330
1A0
102
}
330
1A0
100
AcDbXrecord
 10
0.0
 20
0.0
 30
0.0
  0
XRECORD
  5
1BC
102
{ACAD_REACTORS
330
1A0
102
}
330
1A0
100
AcDbXrecord
 10
0.0
 20
0.0
 30
0.0
  0
XRECORD
  5
1BD
102
{ACAD_REACTORS
330
1A0
102
}
330
1A0
100
AcDbXrecord
 10
0.0
 20
0.0
 30
0.0
  0
XRECORD
  5
1BA
102
{ACAD_REACTORS
330
1A0
102
}
330
1A0
100
AcDbXrecord
 10
0.0
 20
0.0
 30
0.0
  0
XRECORD
  5
1B7
102
{ACAD_REACTORS
330
1A0
102
}
330
1A0
100
AcDbXrecord
340
0
  0
XRECORD
  5
1B8
102
{ACAD_REACTORS
330
1A0
102
}
330
1A0
100
AcDbXrecord
 70
     0
  0
XRECORD
  5
1AC
102
{ACAD_REACTORS
330
1A0
102
}
330
1A0
100
AcDbXrecord
  1
{FAEB1C32-E019-11D5-929B-00C0DF256EC4}
  0
DICTIONARYVAR
  5
1CE
102
{ACAD_REACTORS
330
1C1
102
}
330
1C1
100
DictionaryVariables
280
     0
  1
1:1
  0
DICTIONARYVAR
  5
1C8
102
{ACAD_REACTORS
330
1C1
102
}
330
1C1
100
DictionaryVariables
280
     0
  1
3.500000
  0
DICTIONARYVAR
  5
1C9
102
{ACAD_REACTORS
330
1C1
102
}
330
1C1
100
DictionaryVariables
280
     0
  1
acadiso.lin
  0
DICTIONARYVAR
  5
1C3
102
{ACAD_REACTORS
330
1C1
102
}
330
1C1
100
DictionaryVariables
280
     0
  1
Standard
  0
DICTIONARYVAR
  5
1C2
102
{ACAD_REACTORS
330
1C1
102
}
330
1C1
100
DictionaryVariables
280
     0
  1
Standard
  0
DICTIONARYVAR
  5
1CA
102
{ACAD_REACTORS
330
1C1
102
}
330
1C1
100
DictionaryVariables
280
     0
  1
2
  0
DICTIONARYVAR
  5
1CB
102
{ACAD_REACTORS
330
1C1
102
}
330
1C1
100
DictionaryVariables
280
     0
  1
1
  0
DICTIONARYVAR
  5
1CF
102
{ACAD_REACTORS
330
1C1
102
}
330
1C1
100
DictionaryVariables
280
     0
  1
1
  0
DICTIONARYVAR
  5
1C5
102
{ACAD_REACTORS
330
1C1
102
}
330
1C1
100
DictionaryVariables
280
     0
  1
80.000000
  0
DICTIONARYVAR
  5
1C4
102
{ACAD_REACTORS
330
1C1
102
}
330
1C1
100
DictionaryVariables
280
     0
  1
5.000000
  0
DICTIONARY
  5
1D2
330
45
100
AcDbDictionary
280
     1
  3
ACAD_XREC_ROUNDTRIP
360
1D3
  0
DICTIONARY
  5
1D0
330
44
100
AcDbDictionary
280
     1
  3
ACAD_XREC_ROUNDTRIP
360
1D1
  0
DICTIONARY
  5
1D4
330
46
100
AcDbDictionary
280
     1
  3
ACAD_XREC_ROUNDTRIP
360
1D5
  0
XRECORD
  5
1D3
102
{ACAD_REACTORS
330
1D2
102
}
330
1D2
100
AcDbXrecord
102
MATERIAL
148
0.0
149
0.0
149
0.0
 93
        0
 94
      127
282
     0
 72
     1
 77
     1
171
     1
175
     1
179
     1
273
     0
  0
XRECORD
  5
1D1
102
{ACAD_REACTORS
330
1D0
102
}
330
1D0
100
AcDbXrecord
102
MATERIAL
148
0.0
149
0.0
149
0.0
 93
        0
 94
      127
282
     0
 72
     1
 77
     1
171
     1
175
     1
179
     1
273
     0
  0
XRECORD
  5
1D5
102
{ACAD_REACTORS
330
1D4
102
}
330
1D4
100
AcDbXrecord
102
MATERIAL
148
0.0
149
0.0
149
0.0
 93
        0
 94
      127
282
     0
 72
     1
 77
     1
171
     1
175
     1
179
     1
273
     0
  0
ENDSEC
  0
EOF
