  0
SECTION
  2
HEADER
  9
$ACADVER
  1
AC1014
  9
$ACADMAINTVER
 70
     9
  9
$DWGCODEPAGE
  3
ANSI_1252
  9
$INSBASE
 10
0.0
 20
0.0
 30
0.0
  9
$EXTMIN
 10
0.0
 20
0.0
 30
0.0
  9
$EXTMAX
 10
25.0
 20
35.0
 30
0.0
  9
$LIMMIN
 10
0.0
 20
0.0
  9
$LIMMAX
 10
420.0
 20
297.0
  9
$ORTHOMODE
 70
     0
  9
$REGENMODE
 70
     1
  9
$FILLMODE
 70
     1
  9
$QTEXTMODE
 70
     0
  9
$MIRRTEXT
 70
     1
  9
$DRAGMODE
 70
     2
  9
$LTSCALE
 40
5.9
  9
$OSMODE
 70
    37
  9
$ATTMODE
 70
     1
  9
$TEXTSIZE
 40
2.5
  9
$TRACEWID
 40
1.0
  9
$TEXTSTYLE
  7
STANDARD
  9
$CLAYER
  8
0
  9
$CELTYPE
  6
BYLAYER
  9
$CECOLOR
 62
   256
  9
$CELTSCALE
 40
1.0
  9
$DELOBJ
 70
     1
  9
$DISPSILH
 70
     0
  9
$DIMSCALE
 40
1.0
  9
$DIMASZ
 40
2.5
  9
$DIMEXO
 40
0.625
  9
$DIMDLI
 40
3.75
  9
$DIMRND
 40
0.0
  9
$DIMDLE
 40
0.0
  9
$DIMEXE
 40
1.25
  9
$DIMTP
 40
0.0
  9
$DIMTM
 40
0.0
  9
$DIMTXT
 40
2.5
  9
$DIMCEN
 40
2.5
  9
$DIMTSZ
 40
0.0
  9
$DIMTOL
 70
     0
  9
$DIMLIM
 70
     0
  9
$DIMTIH
 70
     0
  9
$DIMTOH
 70
     0
  9
$DIMSE1
 70
     0
  9
$DIMSE2
 70
     0
  9
$DIMTAD
 70
     1
  9
$DIMZIN
 70
     8
  9
$DIMBLK
  1

  9
$DIMASO
 70
     1
  9
$DIMSHO
 70
     1
  9
$DIMPOST
  1

  9
$DIMAPOST
  1

  9
$DIMALT
 70
     0
  9
$DIMALTD
 70
     3
  9
$DIMALTF
 40
0.03937007874016
  9
$DIMLFAC
 40
1.0
  9
$DIMTOFL
 70
     1
  9
$DIMTVP
 40
0.0
  9
$DIMTIX
 70
     0
  9
$DIMSOXD
 70
     0
  9
$DIMSAH
 70
     0
  9
$DIMBLK1
  1

  9
$DIMBLK2
  1

  9
$DIMSTYLE
  2
ISO-25
  9
$DIMCLRD
 70
     0
  9
$DIMCLRE
 70
     0
  9
$DIMCLRT
 70
     0
  9
$DIMTFAC
 40
1.0
  9
$DIMGAP
 40
0.625
  9
$DIMJUST
 70
     0
  9
$DIMSD1
 70
     0
  9
$DIMSD2
 70
     0
  9
$DIMTOLJ
 70
     0
  9
$DIMTZIN
 70
     8
  9
$DIMALTZ
 70
     0
  9
$DIMALTTZ
 70
     0
  9
$DIMFIT
 70
     3
  9
$DIMUPT
 70
     0
  9
$DIMUNIT
 70
     2
  9
$DIMDEC
 70
     2
  9
$DIMTDEC
 70
     2
  9
$DIMALTU
 70
     2
  9
$DIMALTTD
 70
     3
  9
$DIMTXSTY
  7
STANDARD
  9
$DIMAUNIT
 70
     0
  9
$LUNITS
 70
     2
  9
$LUPREC
 70
     4
  9
$SKETCHINC
 40
1.0
  9
$FILLETRAD
 40
10.0
  9
$AUNITS
 70
     0
  9
$AUPREC
 70
     0
  9
$MENU
  1
.
  9
$ELEVATION
 40
0.0
  9
$PELEVATION
 40
0.0
  9
$THICKNESS
 40
0.0
  9
$LIMCHECK
 70
     0
  9
$CHAMFERA
 40
0.0
  9
$CHAMFERB
 40
0.0
  9
$CHAMFERC
 40
0.0
  9
$CHAMFERD
 40
0.0
  9
$SKPOLY
 70
     0
  9
$TDCREATE
 40
2458919.685416667
  9
$TDUPDATE
 40
2458919.647231482
  9
$TDINDWG
 40
0.0000000116
  9
$TDUSRTIMER
 40
0.0000000116
  9
$USRTIMER
 70
     1
  9
$ANGBASE
 50
0.0
  9
$ANGDIR
 70
     0
  9
$PDMODE
 70
     0
  9
$PDSIZE
 40
0.0
  9
$PLINEWID
 40
0.0
  9
$COORDS
 70
     1
  9
$SPLFRAME
 70
     0
  9
$SPLINETYPE
 70
     6
  9
$SPLINESEGS
 70
     8
  9
$ATTDIA
 70
     0
  9
$ATTREQ
 70
     1
  9
$HANDLING
 70
     1
  9
$HANDSEED
  5
499
  9
$SURFTAB1
 70
     6
  9
$SURFTAB2
 70
     6
  9
$SURFTYPE
 70
     6
  9
$SURFU
 70
     6
  9
$SURFV
 70
     6
  9
$UCSNAME
  2

  9
$UCSORG
 10
0.0
 20
0.0
 30
0.0
  9
$UCSXDIR
 10
1.0
 20
0.0
 30
0.0
  9
$UCSYDIR
 10
0.0
 20
1.0
 30
0.0
  9
$PUCSNAME
  2

  9
$PUCSORG
 10
0.0
 20
0.0
 30
0.0
  9
$PUCSXDIR
 10
1.0
 20
0.0
 30
0.0
  9
$PUCSYDIR
 10
0.0
 20
1.0
 30
0.0
  9
$USERI1
 70
     0
  9
$USERI2
 70
     0
  9
$USERI3
 70
     0
  9
$USERI4
 70
     0
  9
$USERI5
 70
     0
  9
$USERR1
 40
0.0
  9
$USERR2
 40
0.0
  9
$USERR3
 40
0.0
  9
$USERR4
 40
0.0
  9
$USERR5
 40
0.0
  9
$WORLDVIEW
 70
     1
  9
$SHADEDGE
 70
     3
  9
$SHADEDIF
 70
    70
  9
$TILEMODE
 70
     1
  9
$MAXACTVP
 70
    64
  9
$PINSBASE
 10
0.0
 20
0.0
 30
0.0
  9
$PLIMCHECK
 70
     0
  9
$PEXTMIN
 10
1.000000000000000E+20
 20
1.000000000000000E+20
 30
1.000000000000000E+20
  9
$PEXTMAX
 10
-1.000000000000000E+20
 20
-1.000000000000000E+20
 30
-1.000000000000000E+20
  9
$PLIMMIN
 10
0.0
 20
0.0
  9
$PLIMMAX
 10
420.0
 20
297.0
  9
$UNITMODE
 70
     0
  9
$VISRETAIN
 70
     1
  9
$PLINEGEN
 70
     0
  9
$PSLTSCALE
 70
     1
  9
$TREEDEPTH
 70
  3020
  9
$PICKSTYLE
 70
     1
  9
$CMLSTYLE
  2
STANDARD
  9
$CMLJUST
 70
     0
  9
$CMLSCALE
 40
20.0
  9
$PROXYGRAPHICS
 70
     1
  9
$MEASUREMENT
 70
     1
  0
ENDSEC
  0
SECTION
  2
CLASSES
  0
CLASS
  1
ACDBDICTIONARYWDFLT
  2
AcDbDictionaryWithDefault
  3
ObjectDBX Classes
 90
        0
280
     0
281
     0
  0
CLASS
  1
VISUALSTYLE
  2
AcDbVisualStyle
  3
ObjectDBX Classes
 90
     4095
280
     0
281
     0
  0
CLASS
  1
MATERIAL
  2
AcDbMaterial
  3
ObjectDBX Classes
 90
     1153
280
     0
281
     0
  0
CLASS
  1
SCALE
  2
AcDbScale
  3
ObjectDBX Classes
 90
     1153
280
     0
281
     0
  0
CLASS
  1
TABLESTYLE
  2
AcDbTableStyle
  3
ObjectDBX Classes
 90
     4095
280
     0
281
     0
  0
CLASS
  1
MLEADERSTYLE
  2
AcDbMLeaderStyle
  3
ACDB_MLEADERSTYLE_CLASS
 90
     4095
280
     0
281
     0
  0
CLASS
  1
SUN
  2
AcDbSun
  3
SCENEOE
 90
     1153
280
     0
281
     0
  0
CLASS
  1
DICTIONARYVAR
  2
AcDbDictionaryVar
  3
ObjectDBX Classes
 90
        0
280
     0
281
     0
  0
CLASS
  1
XRECORD
  2
AcDbXrecord
  3
ObjectDBX Classes
 90
        0
280
     0
281
     0
  0
CLASS
  1
LWPOLYLINE
  2
AcDbPolyline
  3
ObjectDBX Classes
 90
        0
280
     0
281
     1
  0
CLASS
  1
HATCH
  2
AcDbHatch
  3
ObjectDBX Classes
 90
        0
280
     0
281
     1
  0
CLASS
  1
ACDBPLACEHOLDER
  2
AcDbPlaceHolder
  3
ObjectDBX Classes
 90
        0
280
     0
281
     0
  0
CLASS
  1
LAYOUT
  2
AcDbLayout
  3
ObjectDBX Classes
 90
        0
280
     0
281
     0
  0
ENDSEC
  0
SECTION
  2
TABLES
  0
TABLE
  2
VPORT
  5
8
102
{ACAD_XDICTIONARY
360
48E
102
}
330
0
100
AcDbSymbolTable
 70
     1
  0
VPORT
  5
29
330
8
100
AcDbSymbolTableRecord
100
AcDbViewportTableRecord
  2
*ACTIVE
 70
     0
 10
0.0
 20
0.0
 11
1.0
 21
1.0
 12
68.17529300000002
 22
42.0488
 13
0.0
 23
0.0
 14
10.0
 24
10.0
 15
10.0
 25
10.0
 16
0.0
 26
0.0
 36
1.0
 17
0.0
 27
0.0
 37
0.0
 40
101.487552
 41
25.4915755354903
 42
50.0
 43
0.0
 44
0.0
 50
0.0
 51
0.0
 71
     0
 72
   100
 73
     1
 74
     3
 75
     0
 76
     0
 77
     0
 78
     0
  0
ENDTAB
  0
TABLE
  2
LTYPE
  5
5
330
0
100
AcDbSymbolTable
 70
     2
  0
LTYPE
  5
14
330
5
100
AcDbSymbolTableRecord
100
AcDbLinetypeTableRecord
  2
BYBLOCK
 70
     0
  3

 72
    65
 73
     0
 40
0.0
  0
LTYPE
  5
15
330
5
100
AcDbSymbolTableRecord
100
AcDbLinetypeTableRecord
  2
BYLAYER
 70
     0
  3

 72
    65
 73
     0
 40
0.0
  0
LTYPE
  5
16
330
5
100
AcDbSymbolTableRecord
100
AcDbLinetypeTableRecord
  2
CONTINUOUS
 70
     0
  3
Solid line
 72
    65
 73
     0
 40
0.0
  0
LTYPE
  5
7A
330
5
100
AcDbSymbolTableRecord
100
AcDbLinetypeTableRecord
  2
PHL_THICK
 70
     0
  3
THICK
 72
    65
 73
     0
 40
0.0
  0
ENDTAB
  0
TABLE
  2
LAYER
  5
2
330
0
100
AcDbSymbolTable
 70
     2
  0
LAYER
  5
10
330
2
100
AcDbSymbolTableRecord
100
AcDbLayerTableRecord
  2
0
 70
     0
 62
     7
  6
CONTINUOUS
  0
LAYER
  5
79
330
2
100
AcDbSymbolTableRecord
100
AcDbLayerTableRecord
  2
PROJECTION
 70
     0
 62
     7
  6
CONTINUOUS
  0
ENDTAB
  0
TABLE
  2
STYLE
  5
3
330
0
100
AcDbSymbolTable
 70
     1
  0
STYLE
  5
11
330
3
100
AcDbSymbolTableRecord
100
AcDbTextStyleTableRecord
  2
STANDARD
 70
     0
 40
0.0
 41
1.0
 50
0.0
 71
     0
 42
2.5
  3
txt
  4

  0
ENDTAB
  0
TABLE
  2
VIEW
  5
6
330
0
100
AcDbSymbolTable
 70
     0
  0
ENDTAB
  0
TABLE
  2
UCS
  5
7
330
0
100
AcDbSymbolTable
 70
     0
  0
ENDTAB
  0
TABLE
  2
APPID
  5
9
330
0
100
AcDbSymbolTable
 70
     3
  0
APPID
  5
12
330
9
100
AcDbSymbolTableRecord
100
AcDbRegAppTableRecord
  2
ACAD
 70
     0
  0
APPID
  5
6E
330
9
100
AcDbSymbolTableRecord
100
AcDbRegAppTableRecord
  2
CCLAB
 70
     0
  0
APPID
  5
498
330
9
100
AcDbSymbolTableRecord
100
AcDbRegAppTableRecord
  2
ACAD_MLEADERVER
 70
     0
  0
ENDTAB
  0
TABLE
  2
DIMSTYLE
  5
A
330
0
100
AcDbSymbolTable
 70
     1
  0
DIMSTYLE
105
27
330
A
100
AcDbSymbolTableRecord
100
AcDbDimStyleTableRecord
  2
ISO-25
 70
     0
  3

  4

  5

  6

  7

 40
1.0
 41
2.5
 42
0.625
 43
3.75
 44
1.25
 45
0.0
 46
0.0
 47
0.0
 48
0.0
140
2.5
141
2.5
142
0.0
143
0.03937007874016
144
1.0
145
0.0
146
1.0
147
0.625
 71
     0
 72
     0
 73
     0
 74
     0
 75
     0
 76
     0
 77
     1
 78
     8
170
     0
171
     3
172
     1
173
     0
174
     0
175
     0
176
     0
177
     0
178
     0
270
     2
271
     2
272
     2
273
     2
274
     3
340
11
275
     0
280
     0
281
     0
282
     0
283
     0
284
     8
285
     0
286
     0
287
     3
288
     0
  0
ENDTAB
  0
TABLE
  2
BLOCK_RECORD
  5
1
330
0
100
AcDbSymbolTable
 70
     4
  0
BLOCK_RECORD
  5
1F
330
1
100
AcDbSymbolTableRecord
100
AcDbBlockTableRecord
  2
*MODEL_SPACE
  0
BLOCK_RECORD
  5
1B
330
1
100
AcDbSymbolTableRecord
100
AcDbBlockTableRecord
  2
*PAPER_SPACE
  0
ENDTAB
  0
ENDSEC
  0
SECTION
  2
BLOCKS
  0
BLOCK
  5
20
330
1F
100
AcDbEntity
  8
0
100
AcDbBlockBegin
  2
*MODEL_SPACE
 70
     0
 10
0.0
 20
0.0
 30
0.0
  3
*MODEL_SPACE
  1

  0
ENDBLK
  5
21
330
1F
100
AcDbEntity
  8
0
100
AcDbBlockEnd
  0
BLOCK
  5
1C
330
1B
100
AcDbEntity
 67
     1
  8
0
100
AcDbBlockBegin
  2
*PAPER_SPACE
 70
     0
 10
0.0
 20
0.0
 30
0.0
  3
*PAPER_SPACE
  1

  0
ENDBLK
  5
1D
330
1B
100
AcDbEntity
 67
     1
  8
0
100
AcDbBlockEnd
  0
ENDSEC
  0
SECTION
  2
ENTITIES
  0
LINE
  5
26F
330
1F
100
AcDbEntity
  8
PROJECTION
  6
PHL_THICK
 62
     7
100
AcDbLine
 10
635.397217
 20
-7.7
 30
0.0
 11
635.242493
 21
-4.7
 31
0.0
  0
LINE
  5
270
330
1F
100
AcDbEntity
  8
PROJECTION
  6
PHL_THICK
 62
     7
100
AcDbLine
 10
-614.602783
 20
-7.7
 30
0.0
 11
-614.757507
 21
-4.7
 31
0.0
  0
LINE
  5
271
330
1F
100
AcDbEntity
  8
PROJECTION
  6
PHL_THICK
 62
     7
100
AcDbLine
 10
-927.102783
 20
-7.7
 30
0.0
 11
-927.257507
 21
-4.7
 31
0.0
  0
LINE
  5
272
330
1F
100
AcDbEntity
  8
PROJECTION
  6
PHL_THICK
 62
     7
100
AcDbLine
 10
947.897217
 20
-7.7
 30
0.0
 11
947.742493
 21
-4.7
 31
0.0
  0
LINE
  5
273
330
1F
100
AcDbEntity
  8
PROJECTION
  6
PHL_THICK
 62
     7
100
AcDbLine
 10
-295.5
 20
-7.7
 30
0.0
 11
-295.654755
 21
-4.7
 31
0.0
  0
LINE
  5
274
330
1F
100
AcDbEntity
  8
PROJECTION
  6
PHL_THICK
 62
     7
100
AcDbLine
 10
-302.102783
 20
-7.7
 30
0.0
 11
-302.257538
 21
-4.7
 31
0.0
  0
LINE
  5
275
330
1F
100
AcDbEntity
  8
PROJECTION
  6
PHL_THICK
 62
     7
100
AcDbLine
 10
329.5
 20
-7.7
 30
0.0
 11
329.345245
 21
-4.7
 31
0.0
  0
LINE
  5
276
330
1F
100
AcDbEntity
  8
PROJECTION
  6
PHL_THICK
 62
     7
100
AcDbLine
 10
322.897217
 20
-7.7
 30
0.0
 11
322.742462
 21
-4.7
 31
0.0
  0
LINE
  5
277
330
1F
100
AcDbEntity
  8
PROJECTION
  6
PHL_THICK
 62
     7
100
AcDbLine
 10
10.397226
 20
-7.7
 30
0.0
 11
10.242463
 21
-4.7
 31
0.0
  0
LINE
  5
278
330
1F
100
AcDbEntity
  8
PROJECTION
  6
PHL_THICK
 62
     7
100
AcDbLine
 10
17.0
 20
-7.7
 30
0.0
 11
16.845236
 21
-4.7
 31
0.0
  0
LINE
  5
279
330
1F
100
AcDbEntity
  8
PROJECTION
  6
PHL_THICK
 62
     7
100
AcDbLine
 10
642.0
 20
-7.7
 30
0.0
 11
641.845215
 21
-4.7
 31
0.0
  0
LINE
  5
27A
330
1F
100
AcDbEntity
  8
PROJECTION
  6
PHL_THICK
 62
     7
100
AcDbLine
 10
-608.0
 20
-7.7
 30
0.0
 11
-608.154785
 21
-4.7
 31
0.0
  0
LINE
  5
27B
330
1F
100
AcDbEntity
  8
PROJECTION
  6
PHL_THICK
 62
     7
100
AcDbLine
 10
-920.5
 20
-7.7
 30
0.0
 11
-920.654785
 21
-4.7
 31
0.0
  0
LINE
  5
27C
330
1F
100
AcDbEntity
  8
PROJECTION
  6
PHL_THICK
 62
     7
100
AcDbLine
 10
954.5
 20
-7.7
 30
0.0
 11
954.345215
 21
-4.7
 31
0.0
  0
LINE
  5
27D
330
1F
100
AcDbEntity
  8
PROJECTION
  6
PHL_THICK
 62
     7
100
AcDbLine
 10
1267.0
 20
-7.7
 30
0.0
 11
1266.845215
 21
-4.7
 31
0.0
  0
LINE
  5
27E
330
1F
100
AcDbEntity
  8
PROJECTION
  6
PHL_THICK
 62
     7
100
AcDbLine
 10
1260.397217
 20
-7.7
 30
0.0
 11
1260.242432
 21
-4.7
 31
0.0
  0
LINE
  5
27F
330
1F
100
AcDbEntity
  8
PROJECTION
  6
PHL_THICK
 62
     7
100
AcDbLine
 10
642.0
 20
-7.7
 30
0.0
 11
641.026001
 21
-4.7
 31
0.0
  0
LINE
  5
280
330
1F
100
AcDbEntity
  8
PROJECTION
  6
PHL_THICK
 62
     7
100
AcDbLine
 10
635.397217
 20
-7.7
 30
0.0
 11
634.423218
 21
-4.7
 31
0.0
  0
LINE
  5
281
330
1F
100
AcDbEntity
  8
PROJECTION
  6
PHL_THICK
 62
     7
100
AcDbLine
 10
-608.0
 20
-7.7
 30
0.0
 11
-608.973999
 21
-4.7
 31
0.0
  0
LINE
  5
282
330
1F
100
AcDbEntity
  8
PROJECTION
  6
PHL_THICK
 62
     7
100
AcDbLine
 10
-614.602783
 20
-7.7
 30
0.0
 11
-615.576782
 21
-4.7
 31
0.0
  0
LINE
  5
283
330
1F
100
AcDbEntity
  8
PROJECTION
  6
PHL_THICK
 62
     7
100
AcDbLine
 10
-920.5
 20
-7.7
 30
0.0
 11
-921.473999
 21
-4.7
 31
0.0
  0
LINE
  5
284
330
1F
100
AcDbEntity
  8
PROJECTION
  6
PHL_THICK
 62
     7
100
AcDbLine
 10
-927.102783
 20
-7.7
 30
0.0
 11
-928.076782
 21
-4.7
 31
0.0
  0
LINE
  5
285
330
1F
100
AcDbEntity
  8
PROJECTION
  6
PHL_THICK
 62
     7
100
AcDbLine
 10
954.5
 20
-7.7
 30
0.0
 11
953.526001
 21
-4.7
 31
0.0
  0
LINE
  5
286
330
1F
100
AcDbEntity
  8
PROJECTION
  6
PHL_THICK
 62
     7
100
AcDbLine
 10
947.897217
 20
-7.7
 30
0.0
 11
946.923218
 21
-4.7
 31
0.0
  0
LINE
  5
287
330
1F
100
AcDbEntity
  8
PROJECTION
  6
PHL_THICK
 62
     7
100
AcDbLine
 10
1267.0
 20
-7.7
 30
0.0
 11
1266.026001
 21
-4.7
 31
0.0
  0
LINE
  5
288
330
1F
100
AcDbEntity
  8
PROJECTION
  6
PHL_THICK
 62
     7
100
AcDbLine
 10
1260.397217
 20
-7.7
 30
0.0
 11
1259.423218
 21
-4.7
 31
0.0
  0
LINE
  5
289
330
1F
100
AcDbEntity
  8
PROJECTION
  6
PHL_THICK
 62
     7
100
AcDbLine
 10
1223.279175
 20
16.300022
 30
0.0
 11
1199.822876
 21
88.545654
 31
0.0
  0
LINE
  5
28A
330
1F
100
AcDbEntity
  8
PROJECTION
  6
PHL_THICK
 62
     7
100
AcDbLine
 10
10.397226
 20
-7.7
 30
0.0
 11
9.423201
 21
-4.7
 31
0.0
  0
LINE
  5
28B
330
1F
100
AcDbEntity
  8
PROJECTION
  6
PHL_THICK
 62
     7
100
AcDbLine
 10
-339.220795
 20
16.300022
 30
0.0
 11
-362.677155
 21
88.545654
 31
0.0
  0
LINE
  5
28C
330
1F
100
AcDbEntity
  8
PROJECTION
  6
PHL_THICK
 62
     7
100
AcDbLine
 10
285.779205
 20
16.300022
 30
0.0
 11
262.322845
 21
88.545654
 31
0.0
  0
LINE
  5
28D
330
1F
100
AcDbEntity
  8
PROJECTION
  6
PHL_THICK
 62
     7
100
AcDbLine
 10
17.0
 20
-7.7
 30
0.0
 11
16.025974
 21
-4.7
 31
0.0
  0
LINE
  5
28E
330
1F
100
AcDbEntity
  8
PROJECTION
  6
PHL_THICK
 62
     7
100
AcDbLine
 10
-26.720787
 20
16.300022
 30
0.0
 11
-50.177158
 21
88.545654
 31
0.0
  0
LINE
  5
28F
330
1F
100
AcDbEntity
  8
PROJECTION
  6
PHL_THICK
 62
     7
100
AcDbLine
 10
598.279236
 20
16.300022
 30
0.0
 11
574.822815
 21
88.545654
 31
0.0
  0
LINE
  5
290
330
1F
100
AcDbEntity
  8
PROJECTION
  6
PHL_THICK
 62
     7
100
AcDbLine
 10
-651.720764
 20
16.300022
 30
0.0
 11
-675.177185
 21
88.545654
 31
0.0
  0
LINE
  5
291
330
1F
100
AcDbEntity
  8
PROJECTION
  6
PHL_THICK
 62
     7
100
AcDbLine
 10
-964.220764
 20
16.300022
 30
0.0
 11
-987.677185
 21
88.545654
 31
0.0
  0
LINE
  5
292
330
1F
100
AcDbEntity
  8
PROJECTION
  6
PHL_THICK
 62
     7
100
AcDbLine
 10
910.779236
 20
16.300022
 30
0.0
 11
887.322815
 21
88.545654
 31
0.0
  0
LINE
  5
293
330
1F
100
AcDbEntity
  8
PROJECTION
  6
PHL_THICK
 62
     7
100
AcDbLine
 10
-295.5
 20
-7.7
 30
0.0
 11
-296.47403
 21
-4.7
 31
0.0
  0
LINE
  5
294
330
1F
100
AcDbEntity
  8
PROJECTION
  6
PHL_THICK
 62
     7
100
AcDbLine
 10
-302.102783
 20
-7.7
 30
0.0
 11
-303.076813
 21
-4.7
 31
0.0
  0
LINE
  5
295
330
1F
100
AcDbEntity
  8
PROJECTION
  6
PHL_THICK
 62
     7
100
AcDbLine
 10
329.5
 20
-7.7
 30
0.0
 11
328.52597
 21
-4.7
 31
0.0
  0
LINE
  5
296
330
1F
100
AcDbEntity
  8
PROJECTION
  6
PHL_THICK
 62
     7
100
AcDbLine
 10
322.897217
 20
-7.7
 30
0.0
 11
321.923187
 21
-4.7
 31
0.0
  0
LINE
  5
297
330
1F
100
AcDbEntity
  8
PROJECTION
  6
PHL_THICK
 62
     7
100
AcDbLine
 10
1325.999878
 20
-4.7
 30
0.0
 11
1325.881348
 21
-4.581401
 31
0.0
  0
LINE
  5
298
330
1F
100
AcDbEntity
  8
PROJECTION
  6
PHL_THICK
 62
     7
100
AcDbLine
 10
700.999939
 20
-4.7
 30
0.0
 11
700.881348
 21
-4.581401
 31
0.0
  0
LINE
  5
299
330
1F
100
AcDbEntity
  8
PROJECTION
  6
PHL_THICK
 62
     7
100
AcDbLine
 10
-549.000061
 20
-4.7
 30
0.0
 11
-549.118652
 21
-4.581401
 31
0.0
  0
LINE
  5
29A
330
1F
100
AcDbEntity
  8
PROJECTION
  6
PHL_THICK
 62
     7
100
AcDbLine
 10
-861.500061
 20
-4.7
 30
0.0
 11
-861.618652
 21
-4.581401
 31
0.0
  0
LINE
  5
29B
330
1F
100
AcDbEntity
  8
PROJECTION
  6
PHL_THICK
 62
     7
100
AcDbLine
 10
1013.499939
 20
-4.7
 30
0.0
 11
1013.381348
 21
-4.581401
 31
0.0
  0
LINE
  5
29C
330
1F
100
AcDbEntity
  8
PROJECTION
  6
PHL_THICK
 62
     7
100
AcDbLine
 10
-236.500076
 20
-4.7
 30
0.0
 11
-236.618668
 21
-4.581401
 31
0.0
  0
LINE
  5
29D
330
1F
100
AcDbEntity
  8
PROJECTION
  6
PHL_THICK
 62
     7
100
AcDbLine
 10
75.999931
 20
-4.7
 30
0.0
 11
75.881332
 21
-4.581401
 31
0.0
  0
LINE
  5
29E
330
1F
100
AcDbEntity
  8
PROJECTION
  6
PHL_THICK
 62
     7
100
AcDbLine
 10
388.499939
 20
-4.7
 30
0.0
 11
388.381317
 21
-4.581401
 31
0.0
  0
LINE
  5
29F
330
1F
100
AcDbEntity
  8
PROJECTION
  6
PHL_THICK
 62
     7
100
AcDbLine
 10
623.5
 20
-6.7
 30
0.0
 11
626.5
 21
-6.7
 31
0.0
  0
LINE
  5
2A0
330
1F
100
AcDbEntity
  8
PROJECTION
  6
PHL_THICK
 62
     7
100
AcDbLine
 10
600.0
 20
-6.7
 30
0.0
 11
603.0
 21
-6.7
 31
0.0
  0
LINE
  5
2A1
330
1F
100
AcDbEntity
  8
PROJECTION
  6
PHL_THICK
 62
     7
100
AcDbLine
 10
647.0
 20
-6.7
 30
0.0
 11
650.0
 21
-6.7
 31
0.0
  0
LINE
  5
2A2
330
1F
100
AcDbEntity
  8
PROJECTION
  6
PHL_THICK
 62
     7
100
AcDbLine
 10
-1.5
 20
-6.7
 30
0.0
 11
1.5
 21
-6.7
 31
0.0
  0
LINE
  5
2A3
330
1F
100
AcDbEntity
  8
PROJECTION
  6
PHL_THICK
 62
     7
100
AcDbLine
 10
-25.0
 20
-6.7
 30
0.0
 11
-22.0
 21
-6.7
 31
0.0
  0
LINE
  5
2A4
330
1F
100
AcDbEntity
  8
PROJECTION
  6
PHL_THICK
 62
     7
100
AcDbLine
 10
22.0
 20
-6.7
 30
0.0
 11
25.0
 21
-6.7
 31
0.0
  0
LINE
  5
2A5
330
1F
100
AcDbEntity
  8
PROJECTION
  6
PHL_THICK
 62
     7
100
AcDbLine
 10
-626.5
 20
-6.7
 30
0.0
 11
-623.5
 21
-6.7
 31
0.0
  0
LINE
  5
2A6
330
1F
100
AcDbEntity
  8
PROJECTION
  6
PHL_THICK
 62
     7
100
AcDbLine
 10
-650.0
 20
-6.7
 30
0.0
 11
-647.0
 21
-6.7
 31
0.0
  0
LINE
  5
2A7
330
1F
100
AcDbEntity
  8
PROJECTION
  6
PHL_THICK
 62
     7
100
AcDbLine
 10
-603.0
 20
-6.7
 30
0.0
 11
-600.0
 21
-6.7
 31
0.0
  0
LINE
  5
2A8
330
1F
100
AcDbEntity
  8
PROJECTION
  6
PHL_THICK
 62
     7
100
AcDbLine
 10
-939.0
 20
-6.7
 30
0.0
 11
-936.0
 21
-6.7
 31
0.0
  0
LINE
  5
2A9
330
1F
100
AcDbEntity
  8
PROJECTION
  6
PHL_THICK
 62
     7
100
AcDbLine
 10
-962.5
 20
-6.7
 30
0.0
 11
-959.5
 21
-6.7
 31
0.0
  0
LINE
  5
2AA
330
1F
100
AcDbEntity
  8
PROJECTION
  6
PHL_THICK
 62
     7
100
AcDbLine
 10
-915.5
 20
-6.7
 30
0.0
 11
-912.5
 21
-6.7
 31
0.0
  0
LINE
  5
2AB
330
1F
100
AcDbEntity
  8
PROJECTION
  6
PHL_THICK
 62
     7
100
AcDbLine
 10
-314.0
 20
-6.7
 30
0.0
 11
-311.0
 21
-6.7
 31
0.0
  0
LINE
  5
2AC
330
1F
100
AcDbEntity
  8
PROJECTION
  6
PHL_THICK
 62
     7
100
AcDbLine
 10
-337.5
 20
-6.7
 30
0.0
 11
-334.5
 21
-6.7
 31
0.0
  0
LINE
  5
2AD
330
1F
100
AcDbEntity
  8
PROJECTION
  6
PHL_THICK
 62
     7
100
AcDbLine
 10
-290.5
 20
-6.7
 30
0.0
 11
-287.5
 21
-6.7
 31
0.0
  0
LINE
  5
2AE
330
1F
100
AcDbEntity
  8
PROJECTION
  6
PHL_THICK
 62
     7
100
AcDbLine
 10
311.0
 20
-6.7
 30
0.0
 11
314.0
 21
-6.7
 31
0.0
  0
LINE
  5
2AF
330
1F
100
AcDbEntity
  8
PROJECTION
  6
PHL_THICK
 62
     7
100
AcDbLine
 10
287.5
 20
-6.7
 30
0.0
 11
290.5
 21
-6.7
 31
0.0
  0
LINE
  5
2B0
330
1F
100
AcDbEntity
  8
PROJECTION
  6
PHL_THICK
 62
     7
100
AcDbLine
 10
334.5
 20
-6.7
 30
0.0
 11
337.5
 21
-6.7
 31
0.0
  0
LINE
  5
2B1
330
1F
100
AcDbEntity
  8
PROJECTION
  6
PHL_THICK
 62
     7
100
AcDbLine
 10
936.0
 20
-6.7
 30
0.0
 11
939.0
 21
-6.7
 31
0.0
  0
LINE
  5
2B2
330
1F
100
AcDbEntity
  8
PROJECTION
  6
PHL_THICK
 62
     7
100
AcDbLine
 10
912.5
 20
-6.7
 30
0.0
 11
915.5
 21
-6.7
 31
0.0
  0
LINE
  5
2B3
330
1F
100
AcDbEntity
  8
PROJECTION
  6
PHL_THICK
 62
     7
100
AcDbLine
 10
959.5
 20
-6.7
 30
0.0
 11
962.5
 21
-6.7
 31
0.0
  0
LINE
  5
2B4
330
1F
100
AcDbEntity
  8
PROJECTION
  6
PHL_THICK
 62
     7
100
AcDbLine
 10
1248.5
 20
-6.7
 30
0.0
 11
1251.5
 21
-6.7
 31
0.0
  0
LINE
  5
2B5
330
1F
100
AcDbEntity
  8
PROJECTION
  6
PHL_THICK
 62
     7
100
AcDbLine
 10
1225.0
 20
-6.7
 30
0.0
 11
1228.0
 21
-6.7
 31
0.0
  0
LINE
  5
2B6
330
1F
100
AcDbEntity
  8
PROJECTION
  6
PHL_THICK
 62
     7
100
AcDbLine
 10
1272.0
 20
-6.7
 30
0.0
 11
1275.0
 21
-6.7
 31
0.0
  0
LINE
  5
2B7
330
1F
100
AcDbEntity
  8
PROJECTION
  6
PHL_THICK
 62
     7
100
AcDbLine
 10
623.5
 20
-5.256624
 30
0.0
 11
626.5
 21
-5.256624
 31
0.0
  0
LINE
  5
2B8
330
1F
100
AcDbEntity
  8
PROJECTION
  6
PHL_THICK
 62
     7
100
AcDbLine
 10
-1.5
 20
-5.256624
 30
0.0
 11
1.5
 21
-5.256624
 31
0.0
  0
LINE
  5
2B9
330
1F
100
AcDbEntity
  8
PROJECTION
  6
PHL_THICK
 62
     7
100
AcDbLine
 10
-626.5
 20
-5.256624
 30
0.0
 11
-623.5
 21
-5.256624
 31
0.0
  0
LINE
  5
2BA
330
1F
100
AcDbEntity
  8
PROJECTION
  6
PHL_THICK
 62
     7
100
AcDbLine
 10
-939.0
 20
-5.256624
 30
0.0
 11
-936.0
 21
-5.256624
 31
0.0
  0
LINE
  5
2BB
330
1F
100
AcDbEntity
  8
PROJECTION
  6
PHL_THICK
 62
     7
100
AcDbLine
 10
-314.0
 20
-5.256624
 30
0.0
 11
-311.0
 21
-5.256624
 31
0.0
  0
LINE
  5
2BC
330
1F
100
AcDbEntity
  8
PROJECTION
  6
PHL_THICK
 62
     7
100
AcDbLine
 10
311.0
 20
-5.256624
 30
0.0
 11
314.0
 21
-5.256624
 31
0.0
  0
LINE
  5
2BD
330
1F
100
AcDbEntity
  8
PROJECTION
  6
PHL_THICK
 62
     7
100
AcDbLine
 10
936.0
 20
-5.256624
 30
0.0
 11
939.0
 21
-5.256624
 31
0.0
  0
LINE
  5
2BE
330
1F
100
AcDbEntity
  8
PROJECTION
  6
PHL_THICK
 62
     7
100
AcDbLine
 10
1248.5
 20
-5.256624
 30
0.0
 11
1251.5
 21
-5.256624
 31
0.0
  0
LINE
  5
2BF
330
1F
100
AcDbEntity
  8
PROJECTION
  6
PHL_THICK
 62
     7
100
AcDbLine
 10
538.649475
 20
-4.7
 30
0.0
 11
647.391663
 21
-4.7
 31
0.0
  0
LINE
  5
2C0
330
1F
100
AcDbEntity
  8
PROJECTION
  6
PHL_THICK
 62
     7
100
AcDbLine
 10
650.0
 20
-4.7
 30
0.0
 11
701.000061
 21
-4.7
 31
0.0
  0
LINE
  5
2C1
330
1F
100
AcDbEntity
  8
PROJECTION
  6
PHL_THICK
 62
     7
100
AcDbLine
 10
700.999939
 20
-4.7
 30
0.0
 11
711.350403
 21
-4.7
 31
0.0
  0
LINE
  5
2C2
330
1F
100
AcDbEntity
  8
PROJECTION
  6
PHL_THICK
 62
     7
100
AcDbLine
 10
-1.5
 20
-4.7
 30
0.0
 11
1.5
 21
-4.7
 31
0.0
  0
LINE
  5
2C3
330
1F
100
AcDbEntity
  8
PROJECTION
  6
PHL_THICK
 62
     7
100
AcDbLine
 10
25.000017
 20
-4.7
 30
0.0
 11
76.000061
 21
-4.7
 31
0.0
  0
LINE
  5
2C4
330
1F
100
AcDbEntity
  8
PROJECTION
  6
PHL_THICK
 62
     7
100
AcDbLine
 10
16.845255
 20
-4.7
 30
0.0
 11
22.000017
 21
-4.7
 31
0.0
  0
LINE
  5
2C5
330
1F
100
AcDbEntity
  8
PROJECTION
  6
PHL_THICK
 62
     7
100
AcDbLine
 10
10.242481
 20
-4.7
 30
0.0
 11
16.025997
 21
-4.7
 31
0.0
  0
LINE
  5
2C6
330
1F
100
AcDbEntity
  8
PROJECTION
  6
PHL_THICK
 62
     7
100
AcDbLine
 10
1.5
 20
-4.7
 30
0.0
 11
9.423223
 21
-4.7
 31
0.0
  0
LINE
  5
2C7
330
1F
100
AcDbEntity
  8
PROJECTION
  6
PHL_THICK
 62
     7
100
AcDbLine
 10
75.999931
 20
-4.7
 30
0.0
 11
86.350403
 21
-4.7
 31
0.0
  0
LINE
  5
2C8
330
1F
100
AcDbEntity
  8
PROJECTION
  6
PHL_THICK
 62
     7
100
AcDbLine
 10
-9.423188
 20
-4.7
 30
0.0
 11
-1.5
 21
-4.7
 31
0.0
  0
LINE
  5
2C9
330
1F
100
AcDbEntity
  8
PROJECTION
  6
PHL_THICK
 62
     7
100
AcDbLine
 10
-16.025963
 20
-4.7
 30
0.0
 11
-10.242446
 21
-4.7
 31
0.0
  0
LINE
  5
2CA
330
1F
100
AcDbEntity
  8
PROJECTION
  6
PHL_THICK
 62
     7
100
AcDbLine
 10
-21.999983
 20
-4.7
 30
0.0
 11
-16.845221
 21
-4.7
 31
0.0
  0
LINE
  5
2CB
330
1F
100
AcDbEntity
  8
PROJECTION
  6
PHL_THICK
 62
     7
100
AcDbLine
 10
1.5
 20
-4.7
 30
0.0
 11
22.391691
 21
-4.7
 31
0.0
  0
LINE
  5
2CC
330
1F
100
AcDbEntity
  8
PROJECTION
  6
PHL_THICK
 62
     7
100
AcDbLine
 10
-86.35054
 20
-4.7
 30
0.0
 11
-1.5
 21
-4.7
 31
0.0
  0
LINE
  5
2CD
330
1F
100
AcDbEntity
  8
PROJECTION
  6
PHL_THICK
 62
     7
100
AcDbLine
 10
-626.5
 20
-4.7
 30
0.0
 11
-623.5
 21
-4.7
 31
0.0
  0
LINE
  5
2CE
330
1F
100
AcDbEntity
  8
PROJECTION
  6
PHL_THICK
 62
     7
100
AcDbLine
 10
-600.0
 20
-4.7
 30
0.0
 11
-548.999939
 21
-4.7
 31
0.0
  0
LINE
  5
2CF
330
1F
100
AcDbEntity
  8
PROJECTION
  6
PHL_THICK
 62
     7
100
AcDbLine
 10
-608.154724
 20
-4.7
 30
0.0
 11
-603.0
 21
-4.7
 31
0.0
  0
LINE
  5
2D0
330
1F
100
AcDbEntity
  8
PROJECTION
  6
PHL_THICK
 62
     7
100
AcDbLine
 10
-614.757507
 20
-4.7
 30
0.0
 11
-608.973999
 21
-4.7
 31
0.0
  0
LINE
  5
2D1
330
1F
100
AcDbEntity
  8
PROJECTION
  6
PHL_THICK
 62
     7
100
AcDbLine
 10
-623.5
 20
-4.7
 30
0.0
 11
-615.576782
 21
-4.7
 31
0.0
  0
LINE
  5
2D2
330
1F
100
AcDbEntity
  8
PROJECTION
  6
PHL_THICK
 62
     7
100
AcDbLine
 10
-549.000061
 20
-4.7
 30
0.0
 11
-538.649597
 21
-4.7
 31
0.0
  0
LINE
  5
2D3
330
1F
100
AcDbEntity
  8
PROJECTION
  6
PHL_THICK
 62
     7
100
AcDbLine
 10
-634.423218
 20
-4.7
 30
0.0
 11
-626.5
 21
-4.7
 31
0.0
  0
LINE
  5
2D4
330
1F
100
AcDbEntity
  8
PROJECTION
  6
PHL_THICK
 62
     7
100
AcDbLine
 10
-641.02594
 20
-4.7
 30
0.0
 11
-635.242432
 21
-4.7
 31
0.0
  0
LINE
  5
2D5
330
1F
100
AcDbEntity
  8
PROJECTION
  6
PHL_THICK
 62
     7
100
AcDbLine
 10
-647.0
 20
-4.7
 30
0.0
 11
-641.845215
 21
-4.7
 31
0.0
  0
LINE
  5
2D6
330
1F
100
AcDbEntity
  8
PROJECTION
  6
PHL_THICK
 62
     7
100
AcDbLine
 10
-623.5
 20
-4.7
 30
0.0
 11
-602.608337
 21
-4.7
 31
0.0
  0
LINE
  5
2D7
330
1F
100
AcDbEntity
  8
PROJECTION
  6
PHL_THICK
 62
     7
100
AcDbLine
 10
-711.350525
 20
-4.7
 30
0.0
 11
-626.5
 21
-4.7
 31
0.0
  0
LINE
  5
2D8
330
1F
100
AcDbEntity
  8
PROJECTION
  6
PHL_THICK
 62
     7
100
AcDbLine
 10
-939.0
 20
-4.7
 30
0.0
 11
-936.0
 21
-4.7
 31
0.0
  0
LINE
  5
2D9
330
1F
100
AcDbEntity
  8
PROJECTION
  6
PHL_THICK
 62
     7
100
AcDbLine
 10
-912.5
 20
-4.7
 30
0.0
 11
-861.499939
 21
-4.7
 31
0.0
  0
LINE
  5
2DA
330
1F
100
AcDbEntity
  8
PROJECTION
  6
PHL_THICK
 62
     7
100
AcDbLine
 10
-920.654724
 20
-4.7
 30
0.0
 11
-915.5
 21
-4.7
 31
0.0
  0
LINE
  5
2DB
330
1F
100
AcDbEntity
  8
PROJECTION
  6
PHL_THICK
 62
     7
100
AcDbLine
 10
-927.257507
 20
-4.7
 30
0.0
 11
-921.473999
 21
-4.7
 31
0.0
  0
LINE
  5
2DC
330
1F
100
AcDbEntity
  8
PROJECTION
  6
PHL_THICK
 62
     7
100
AcDbLine
 10
-936.0
 20
-4.7
 30
0.0
 11
-928.076782
 21
-4.7
 31
0.0
  0
LINE
  5
2DD
330
1F
100
AcDbEntity
  8
PROJECTION
  6
PHL_THICK
 62
     7
100
AcDbLine
 10
-861.500061
 20
-4.7
 30
0.0
 11
-851.149597
 21
-4.7
 31
0.0
  0
LINE
  5
2DE
330
1F
100
AcDbEntity
  8
PROJECTION
  6
PHL_THICK
 62
     7
100
AcDbLine
 10
-946.923218
 20
-4.7
 30
0.0
 11
-939.0
 21
-4.7
 31
0.0
  0
LINE
  5
2DF
330
1F
100
AcDbEntity
  8
PROJECTION
  6
PHL_THICK
 62
     7
100
AcDbLine
 10
-953.52594
 20
-4.7
 30
0.0
 11
-947.742432
 21
-4.7
 31
0.0
  0
LINE
  5
2E0
330
1F
100
AcDbEntity
  8
PROJECTION
  6
PHL_THICK
 62
     7
100
AcDbLine
 10
-959.5
 20
-4.7
 30
0.0
 11
-954.345215
 21
-4.7
 31
0.0
  0
LINE
  5
2E1
330
1F
100
AcDbEntity
  8
PROJECTION
  6
PHL_THICK
 62
     7
100
AcDbLine
 10
-936.0
 20
-4.7
 30
0.0
 11
-915.108337
 21
-4.7
 31
0.0
  0
LINE
  5
2E2
330
1F
100
AcDbEntity
  8
PROJECTION
  6
PHL_THICK
 62
     7
100
AcDbLine
 10
-1023.850525
 20
-4.7
 30
0.0
 11
-939.0
 21
-4.7
 31
0.0
  0
LINE
  5
2E3
330
1F
100
AcDbEntity
  8
PROJECTION
  6
PHL_THICK
 62
     7
100
AcDbLine
 10
-314.0
 20
-4.7
 30
0.0
 11
-311.0
 21
-4.7
 31
0.0
  0
LINE
  5
2E4
330
1F
100
AcDbEntity
  8
PROJECTION
  6
PHL_THICK
 62
     7
100
AcDbLine
 10
-287.499969
 20
-4.7
 30
0.0
 11
-236.499939
 21
-4.7
 31
0.0
  0
LINE
  5
2E5
330
1F
100
AcDbEntity
  8
PROJECTION
  6
PHL_THICK
 62
     7
100
AcDbLine
 10
-295.654755
 20
-4.7
 30
0.0
 11
-290.499969
 21
-4.7
 31
0.0
  0
LINE
  5
2E6
330
1F
100
AcDbEntity
  8
PROJECTION
  6
PHL_THICK
 62
     7
100
AcDbLine
 10
-302.257507
 20
-4.7
 30
0.0
 11
-296.473999
 21
-4.7
 31
0.0
  0
LINE
  5
2E7
330
1F
100
AcDbEntity
  8
PROJECTION
  6
PHL_THICK
 62
     7
100
AcDbLine
 10
-311.0
 20
-4.7
 30
0.0
 11
-303.076782
 21
-4.7
 31
0.0
  0
LINE
  5
2E8
330
1F
100
AcDbEntity
  8
PROJECTION
  6
PHL_THICK
 62
     7
100
AcDbLine
 10
-236.500076
 20
-4.7
 30
0.0
 11
-226.149597
 21
-4.7
 31
0.0
  0
LINE
  5
2E9
330
1F
100
AcDbEntity
  8
PROJECTION
  6
PHL_THICK
 62
     7
100
AcDbLine
 10
-321.923187
 20
-4.7
 30
0.0
 11
-314.0
 21
-4.7
 31
0.0
  0
LINE
  5
2EA
330
1F
100
AcDbEntity
  8
PROJECTION
  6
PHL_THICK
 62
     7
100
AcDbLine
 10
-328.52597
 20
-4.7
 30
0.0
 11
-322.742432
 21
-4.7
 31
0.0
  0
LINE
  5
2EB
330
1F
100
AcDbEntity
  8
PROJECTION
  6
PHL_THICK
 62
     7
100
AcDbLine
 10
-334.499969
 20
-4.7
 30
0.0
 11
-329.345215
 21
-4.7
 31
0.0
  0
LINE
  5
2EC
330
1F
100
AcDbEntity
  8
PROJECTION
  6
PHL_THICK
 62
     7
100
AcDbLine
 10
-311.0
 20
-4.7
 30
0.0
 11
-290.108307
 21
-4.7
 31
0.0
  0
LINE
  5
2ED
330
1F
100
AcDbEntity
  8
PROJECTION
  6
PHL_THICK
 62
     7
100
AcDbLine
 10
-398.850555
 20
-4.7
 30
0.0
 11
-314.0
 21
-4.7
 31
0.0
  0
LINE
  5
2EE
330
1F
100
AcDbEntity
  8
PROJECTION
  6
PHL_THICK
 62
     7
100
AcDbLine
 10
311.0
 20
-4.7
 30
0.0
 11
314.0
 21
-4.7
 31
0.0
  0
LINE
  5
2EF
330
1F
100
AcDbEntity
  8
PROJECTION
  6
PHL_THICK
 62
     7
100
AcDbLine
 10
337.500031
 20
-4.7
 30
0.0
 11
388.500061
 21
-4.7
 31
0.0
  0
LINE
  5
2F0
330
1F
100
AcDbEntity
  8
PROJECTION
  6
PHL_THICK
 62
     7
100
AcDbLine
 10
329.345245
 20
-4.7
 30
0.0
 11
334.500031
 21
-4.7
 31
0.0
  0
LINE
  5
2F1
330
1F
100
AcDbEntity
  8
PROJECTION
  6
PHL_THICK
 62
     7
100
AcDbLine
 10
322.742493
 20
-4.7
 30
0.0
 11
328.526001
 21
-4.7
 31
0.0
  0
LINE
  5
2F2
330
1F
100
AcDbEntity
  8
PROJECTION
  6
PHL_THICK
 62
     7
100
AcDbLine
 10
314.0
 20
-4.7
 30
0.0
 11
321.923218
 21
-4.7
 31
0.0
  0
LINE
  5
2F3
330
1F
100
AcDbEntity
  8
PROJECTION
  6
PHL_THICK
 62
     7
100
AcDbLine
 10
388.499939
 20
-4.7
 30
0.0
 11
398.850403
 21
-4.7
 31
0.0
  0
LINE
  5
2F4
330
1F
100
AcDbEntity
  8
PROJECTION
  6
PHL_THICK
 62
     7
100
AcDbLine
 10
303.076813
 20
-4.7
 30
0.0
 11
311.0
 21
-4.7
 31
0.0
  0
LINE
  5
2F5
330
1F
100
AcDbEntity
  8
PROJECTION
  6
PHL_THICK
 62
     7
100
AcDbLine
 10
296.47403
 20
-4.7
 30
0.0
 11
302.257568
 21
-4.7
 31
0.0
  0
LINE
  5
2F6
330
1F
100
AcDbEntity
  8
PROJECTION
  6
PHL_THICK
 62
     7
100
AcDbLine
 10
290.500031
 20
-4.7
 30
0.0
 11
295.654785
 21
-4.7
 31
0.0
  0
LINE
  5
2F7
330
1F
100
AcDbEntity
  8
PROJECTION
  6
PHL_THICK
 62
     7
100
AcDbLine
 10
314.0
 20
-4.7
 30
0.0
 11
334.891693
 21
-4.7
 31
0.0
  0
LINE
  5
2F8
330
1F
100
AcDbEntity
  8
PROJECTION
  6
PHL_THICK
 62
     7
100
AcDbLine
 10
226.14946
 20
-4.7
 30
0.0
 11
311.0
 21
-4.7
 31
0.0
  0
LINE
  5
2F9
330
1F
100
AcDbEntity
  8
PROJECTION
  6
PHL_THICK
 62
     7
100
AcDbLine
 10
936.0
 20
-4.7
 30
0.0
 11
939.0
 21
-4.7
 31
0.0
  0
LINE
  5
2FA
330
1F
100
AcDbEntity
  8
PROJECTION
  6
PHL_THICK
 62
     7
100
AcDbLine
 10
962.5
 20
-4.7
 30
0.0
 11
1013.500061
 21
-4.7
 31
0.0
  0
LINE
  5
2FB
330
1F
100
AcDbEntity
  8
PROJECTION
  6
PHL_THICK
 62
     7
100
AcDbLine
 10
954.345276
 20
-4.7
 30
0.0
 11
959.5
 21
-4.7
 31
0.0
  0
LINE
  5
2FC
330
1F
100
AcDbEntity
  8
PROJECTION
  6
PHL_THICK
 62
     7
100
AcDbLine
 10
947.742493
 20
-4.7
 30
0.0
 11
953.526001
 21
-4.7
 31
0.0
  0
LINE
  5
2FD
330
1F
100
AcDbEntity
  8
PROJECTION
  6
PHL_THICK
 62
     7
100
AcDbLine
 10
939.0
 20
-4.7
 30
0.0
 11
946.923218
 21
-4.7
 31
0.0
  0
LINE
  5
2FE
330
1F
100
AcDbEntity
  8
PROJECTION
  6
PHL_THICK
 62
     7
100
AcDbLine
 10
1013.499939
 20
-4.7
 30
0.0
 11
1023.850403
 21
-4.7
 31
0.0
  0
LINE
  5
2FF
330
1F
100
AcDbEntity
  8
PROJECTION
  6
PHL_THICK
 62
     7
100
AcDbLine
 10
928.076782
 20
-4.7
 30
0.0
 11
936.0
 21
-4.7
 31
0.0
  0
LINE
  5
300
330
1F
100
AcDbEntity
  8
PROJECTION
  6
PHL_THICK
 62
     7
100
AcDbLine
 10
921.47406
 20
-4.7
 30
0.0
 11
927.257568
 21
-4.7
 31
0.0
  0
LINE
  5
301
330
1F
100
AcDbEntity
  8
PROJECTION
  6
PHL_THICK
 62
     7
100
AcDbLine
 10
915.5
 20
-4.7
 30
0.0
 11
920.654785
 21
-4.7
 31
0.0
  0
LINE
  5
302
330
1F
100
AcDbEntity
  8
PROJECTION
  6
PHL_THICK
 62
     7
100
AcDbLine
 10
939.0
 20
-4.7
 30
0.0
 11
959.891663
 21
-4.7
 31
0.0
  0
LINE
  5
303
330
1F
100
AcDbEntity
  8
PROJECTION
  6
PHL_THICK
 62
     7
100
AcDbLine
 10
851.149475
 20
-4.7
 30
0.0
 11
936.0
 21
-4.7
 31
0.0
  0
LINE
  5
304
330
1F
100
AcDbEntity
  8
PROJECTION
  6
PHL_THICK
 62
     7
100
AcDbLine
 10
1248.5
 20
-4.7
 30
0.0
 11
1251.5
 21
-4.7
 31
0.0
  0
LINE
  5
305
330
1F
100
AcDbEntity
  8
PROJECTION
  6
PHL_THICK
 62
     7
100
AcDbLine
 10
1275.0
 20
-4.7
 30
0.0
 11
1326.0
 21
-4.7
 31
0.0
  0
LINE
  5
306
330
1F
100
AcDbEntity
  8
PROJECTION
  6
PHL_THICK
 62
     7
100
AcDbLine
 10
1266.845215
 20
-4.7
 30
0.0
 11
1272.0
 21
-4.7
 31
0.0
  0
LINE
  5
307
330
1F
100
AcDbEntity
  8
PROJECTION
  6
PHL_THICK
 62
     7
100
AcDbLine
 10
1260.242432
 20
-4.7
 30
0.0
 11
1266.026001
 21
-4.7
 31
0.0
  0
LINE
  5
308
330
1F
100
AcDbEntity
  8
PROJECTION
  6
PHL_THICK
 62
     7
100
AcDbLine
 10
1251.5
 20
-4.7
 30
0.0
 11
1259.423218
 21
-4.7
 31
0.0
  0
LINE
  5
309
330
1F
100
AcDbEntity
  8
PROJECTION
  6
PHL_THICK
 62
     7
100
AcDbLine
 10
1325.999878
 20
-4.7
 30
0.0
 11
1336.350342
 21
-4.7
 31
0.0
  0
LINE
  5
30A
330
1F
100
AcDbEntity
  8
PROJECTION
  6
PHL_THICK
 62
     7
100
AcDbLine
 10
1240.576782
 20
-4.7
 30
0.0
 11
1248.5
 21
-4.7
 31
0.0
  0
LINE
  5
30B
330
1F
100
AcDbEntity
  8
PROJECTION
  6
PHL_THICK
 62
     7
100
AcDbLine
 10
1233.973999
 20
-4.7
 30
0.0
 11
1239.757568
 21
-4.7
 31
0.0
  0
LINE
  5
30C
330
1F
100
AcDbEntity
  8
PROJECTION
  6
PHL_THICK
 62
     7
100
AcDbLine
 10
1228.0
 20
-4.7
 30
0.0
 11
1233.154785
 21
-4.7
 31
0.0
  0
LINE
  5
30D
330
1F
100
AcDbEntity
  8
PROJECTION
  6
PHL_THICK
 62
     7
100
AcDbLine
 10
1251.5
 20
-4.7
 30
0.0
 11
1272.391724
 21
-4.7
 31
0.0
  0
LINE
  5
30E
330
1F
100
AcDbEntity
  8
PROJECTION
  6
PHL_THICK
 62
     7
100
AcDbLine
 10
1163.649414
 20
-4.7
 30
0.0
 11
1248.5
 21
-4.7
 31
0.0
  0
LINE
  5
30F
330
1F
100
AcDbEntity
  8
PROJECTION
  6
PHL_THICK
 62
     7
100
AcDbLine
 10
538.649414
 20
0.527019
 30
0.0
 11
711.350342
 21
0.527019
 31
0.0
  0
LINE
  5
310
330
1F
100
AcDbEntity
  8
PROJECTION
  6
PHL_THICK
 62
     7
100
AcDbLine
 10
-86.350578
 20
0.527019
 30
0.0
 11
86.350372
 21
0.527019
 31
0.0
  0
LINE
  5
311
330
1F
100
AcDbEntity
  8
PROJECTION
  6
PHL_THICK
 62
     7
100
AcDbLine
 10
-711.350586
 20
0.527019
 30
0.0
 11
-538.649658
 21
0.527019
 31
0.0
  0
LINE
  5
312
330
1F
100
AcDbEntity
  8
PROJECTION
  6
PHL_THICK
 62
     7
100
AcDbLine
 10
-1023.850586
 20
0.527019
 30
0.0
 11
-851.149658
 21
0.527019
 31
0.0
  0
LINE
  5
313
330
1F
100
AcDbEntity
  8
PROJECTION
  6
PHL_THICK
 62
     7
100
AcDbLine
 10
-398.850586
 20
0.527019
 30
0.0
 11
-226.149628
 21
0.527019
 31
0.0
  0
LINE
  5
314
330
1F
100
AcDbEntity
  8
PROJECTION
  6
PHL_THICK
 62
     7
100
AcDbLine
 10
226.149429
 20
0.527019
 30
0.0
 11
398.850372
 21
0.527019
 31
0.0
  0
LINE
  5
315
330
1F
100
AcDbEntity
  8
PROJECTION
  6
PHL_THICK
 62
     7
100
AcDbLine
 10
851.149414
 20
0.527019
 30
0.0
 11
1023.850342
 21
0.527019
 31
0.0
  0
LINE
  5
316
330
1F
100
AcDbEntity
  8
PROJECTION
  6
PHL_THICK
 62
     7
100
AcDbLine
 10
1163.649414
 20
0.527019
 30
0.0
 11
1336.350342
 21
0.527019
 31
0.0
  0
LINE
  5
317
330
1F
100
AcDbEntity
  8
PROJECTION
  6
PHL_THICK
 62
     7
100
AcDbLine
 10
538.649414
 20
4.922502
 30
0.0
 11
711.350342
 21
4.922502
 31
0.0
  0
LINE
  5
318
330
1F
100
AcDbEntity
  8
PROJECTION
  6
PHL_THICK
 62
     7
100
AcDbLine
 10
-86.350578
 20
4.922502
 30
0.0
 11
86.350372
 21
4.922502
 31
0.0
  0
LINE
  5
319
330
1F
100
AcDbEntity
  8
PROJECTION
  6
PHL_THICK
 62
     7
100
AcDbLine
 10
-711.350586
 20
4.922502
 30
0.0
 11
-538.649658
 21
4.922502
 31
0.0
  0
LINE
  5
31A
330
1F
100
AcDbEntity
  8
PROJECTION
  6
PHL_THICK
 62
     7
100
AcDbLine
 10
-1023.850586
 20
4.922502
 30
0.0
 11
-851.149658
 21
4.922502
 31
0.0
  0
LINE
  5
31B
330
1F
100
AcDbEntity
  8
PROJECTION
  6
PHL_THICK
 62
     7
100
AcDbLine
 10
-398.850586
 20
4.922502
 30
0.0
 11
-226.149628
 21
4.922502
 31
0.0
  0
LINE
  5
31C
330
1F
100
AcDbEntity
  8
PROJECTION
  6
PHL_THICK
 62
     7
100
AcDbLine
 10
226.149429
 20
4.922502
 30
0.0
 11
398.850372
 21
4.922502
 31
0.0
  0
LINE
  5
31D
330
1F
100
AcDbEntity
  8
PROJECTION
  6
PHL_THICK
 62
     7
100
AcDbLine
 10
851.149414
 20
4.922502
 30
0.0
 11
1023.850342
 21
4.922502
 31
0.0
  0
LINE
  5
31E
330
1F
100
AcDbEntity
  8
PROJECTION
  6
PHL_THICK
 62
     7
100
AcDbLine
 10
1163.649414
 20
4.922502
 30
0.0
 11
1336.350342
 21
4.922502
 31
0.0
  0
LINE
  5
31F
330
1F
100
AcDbEntity
  8
PROJECTION
  6
PHL_THICK
 62
     7
100
AcDbLine
 10
538.649414
 20
7.677498
 30
0.0
 11
711.350342
 21
7.677498
 31
0.0
  0
LINE
  5
320
330
1F
100
AcDbEntity
  8
PROJECTION
  6
PHL_THICK
 62
     7
100
AcDbLine
 10
-86.350578
 20
7.677498
 30
0.0
 11
86.350372
 21
7.677498
 31
0.0
  0
LINE
  5
321
330
1F
100
AcDbEntity
  8
PROJECTION
  6
PHL_THICK
 62
     7
100
AcDbLine
 10
-711.350586
 20
7.677498
 30
0.0
 11
-538.649658
 21
7.677498
 31
0.0
  0
LINE
  5
322
330
1F
100
AcDbEntity
  8
PROJECTION
  6
PHL_THICK
 62
     7
100
AcDbLine
 10
-1023.850586
 20
7.677498
 30
0.0
 11
-851.149658
 21
7.677498
 31
0.0
  0
LINE
  5
323
330
1F
100
AcDbEntity
  8
PROJECTION
  6
PHL_THICK
 62
     7
100
AcDbLine
 10
-398.850586
 20
7.677498
 30
0.0
 11
-226.149628
 21
7.677498
 31
0.0
  0
LINE
  5
324
330
1F
100
AcDbEntity
  8
PROJECTION
  6
PHL_THICK
 62
     7
100
AcDbLine
 10
226.149429
 20
7.677498
 30
0.0
 11
398.850372
 21
7.677498
 31
0.0
  0
LINE
  5
325
330
1F
100
AcDbEntity
  8
PROJECTION
  6
PHL_THICK
 62
     7
100
AcDbLine
 10
851.149414
 20
7.677498
 30
0.0
 11
1023.850342
 21
7.677498
 31
0.0
  0
LINE
  5
326
330
1F
100
AcDbEntity
  8
PROJECTION
  6
PHL_THICK
 62
     7
100
AcDbLine
 10
1163.649414
 20
7.677498
 30
0.0
 11
1336.350342
 21
7.677498
 31
0.0
  0
LINE
  5
327
330
1F
100
AcDbEntity
  8
PROJECTION
  6
PHL_THICK
 62
     7
100
AcDbLine
 10
538.649414
 20
16.299999
 30
0.0
 11
711.350342
 21
16.299999
 31
0.0
  0
LINE
  5
328
330
1F
100
AcDbEntity
  8
PROJECTION
  6
PHL_THICK
 62
     7
100
AcDbLine
 10
-86.350578
 20
16.299999
 30
0.0
 11
86.350372
 21
16.299999
 31
0.0
  0
LINE
  5
329
330
1F
100
AcDbEntity
  8
PROJECTION
  6
PHL_THICK
 62
     7
100
AcDbLine
 10
-711.350586
 20
16.299999
 30
0.0
 11
-538.649658
 21
16.299999
 31
0.0
  0
LINE
  5
32A
330
1F
100
AcDbEntity
  8
PROJECTION
  6
PHL_THICK
 62
     7
100
AcDbLine
 10
-1023.850586
 20
16.299999
 30
0.0
 11
-851.149658
 21
16.299999
 31
0.0
  0
LINE
  5
32B
330
1F
100
AcDbEntity
  8
PROJECTION
  6
PHL_THICK
 62
     7
100
AcDbLine
 10
-398.850586
 20
16.299999
 30
0.0
 11
-226.149628
 21
16.299999
 31
0.0
  0
LINE
  5
32C
330
1F
100
AcDbEntity
  8
PROJECTION
  6
PHL_THICK
 62
     7
100
AcDbLine
 10
226.149429
 20
16.299999
 30
0.0
 11
398.850372
 21
16.299999
 31
0.0
  0
LINE
  5
32D
330
1F
100
AcDbEntity
  8
PROJECTION
  6
PHL_THICK
 62
     7
100
AcDbLine
 10
851.149414
 20
16.299999
 30
0.0
 11
1023.850342
 21
16.299999
 31
0.0
  0
LINE
  5
32E
330
1F
100
AcDbEntity
  8
PROJECTION
  6
PHL_THICK
 62
     7
100
AcDbLine
 10
1163.649414
 20
16.299999
 30
0.0
 11
1336.350342
 21
16.299999
 31
0.0
  0
LINE
  5
32F
330
1F
100
AcDbEntity
  8
PROJECTION
  6
PHL_THICK
 62
     7
100
AcDbLine
 10
1290.097412
 20
57.5
 30
0.0
 11
1299.900024
 21
57.5
 31
0.0
  0
LINE
  5
330
330
1F
100
AcDbEntity
  8
PROJECTION
  6
PHL_THICK
 62
     7
100
AcDbLine
 10
1200.099976
 20
57.5
 30
0.0
 11
1209.90271
 21
57.5
 31
0.0
  0
LINE
  5
331
330
1F
100
AcDbEntity
  8
PROJECTION
  6
PHL_THICK
 62
     7
100
AcDbLine
 10
977.665588
 20
57.709999
 30
0.0
 11
987.400024
 21
57.709999
 31
0.0
  0
LINE
  5
332
330
1F
100
AcDbEntity
  8
PROJECTION
  6
PHL_THICK
 62
     7
100
AcDbLine
 10
887.599976
 20
57.709999
 30
0.0
 11
897.334473
 21
57.709999
 31
0.0
  0
LINE
  5
333
330
1F
100
AcDbEntity
  8
PROJECTION
  6
PHL_THICK
 62
     7
100
AcDbLine
 10
352.665619
 20
57.709999
 30
0.0
 11
362.399994
 21
57.709999
 31
0.0
  0
LINE
  5
334
330
1F
100
AcDbEntity
  8
PROJECTION
  6
PHL_THICK
 62
     7
100
AcDbLine
 10
262.600006
 20
57.709999
 30
0.0
 11
272.334473
 21
57.709999
 31
0.0
  0
LINE
  5
335
330
1F
100
AcDbEntity
  8
PROJECTION
  6
PHL_THICK
 62
     7
100
AcDbLine
 10
-272.334381
 20
57.709999
 30
0.0
 11
-262.600006
 21
57.709999
 31
0.0
  0
LINE
  5
336
330
1F
100
AcDbEntity
  8
PROJECTION
  6
PHL_THICK
 62
     7
100
AcDbLine
 10
-362.399994
 20
57.709999
 30
0.0
 11
-352.665527
 21
57.709999
 31
0.0
  0
LINE
  5
337
330
1F
100
AcDbEntity
  8
PROJECTION
  6
PHL_THICK
 62
     7
100
AcDbLine
 10
-897.334412
 20
57.709999
 30
0.0
 11
-887.599976
 21
57.709999
 31
0.0
  0
LINE
  5
338
330
1F
100
AcDbEntity
  8
PROJECTION
  6
PHL_THICK
 62
     7
100
AcDbLine
 10
-987.400024
 20
57.709999
 30
0.0
 11
-977.665527
 21
57.709999
 31
0.0
  0
LINE
  5
339
330
1F
100
AcDbEntity
  8
PROJECTION
  6
PHL_THICK
 62
     7
100
AcDbLine
 10
-584.834412
 20
57.709999
 30
0.0
 11
-575.099976
 21
57.709999
 31
0.0
  0
LINE
  5
33A
330
1F
100
AcDbEntity
  8
PROJECTION
  6
PHL_THICK
 62
     7
100
AcDbLine
 10
-674.900024
 20
57.709999
 30
0.0
 11
-665.165527
 21
57.709999
 31
0.0
  0
LINE
  5
33B
330
1F
100
AcDbEntity
  8
PROJECTION
  6
PHL_THICK
 62
     7
100
AcDbLine
 10
40.165611
 20
57.709999
 30
0.0
 11
49.900002
 21
57.709999
 31
0.0
  0
LINE
  5
33C
330
1F
100
AcDbEntity
  8
PROJECTION
  6
PHL_THICK
 62
     7
100
AcDbLine
 10
-49.900002
 20
57.709999
 30
0.0
 11
-40.165535
 21
57.709999
 31
0.0
  0
LINE
  5
33D
330
1F
100
AcDbEntity
  8
PROJECTION
  6
PHL_THICK
 62
     7
100
AcDbLine
 10
665.165588
 20
57.709999
 30
0.0
 11
674.900024
 21
57.709999
 31
0.0
  0
LINE
  5
33E
330
1F
100
AcDbEntity
  8
PROJECTION
  6
PHL_THICK
 62
     7
100
AcDbLine
 10
575.099976
 20
57.709999
 30
0.0
 11
584.834473
 21
57.709999
 31
0.0
  0
LINE
  5
33F
330
1F
100
AcDbEntity
  8
PROJECTION
  6
PHL_THICK
 62
     7
100
AcDbLine
 10
-1200.0
 20
80.0
 30
0.0
 11
-987.499939
 21
80.0
 31
0.0
  0
LINE
  5
340
330
1F
100
AcDbEntity
  8
PROJECTION
  6
PHL_THICK
 62
     7
100
AcDbLine
 10
-887.499939
 20
80.0
 30
0.0
 11
-674.999939
 21
80.0
 31
0.0
  0
LINE
  5
341
330
1F
100
AcDbEntity
  8
PROJECTION
  6
PHL_THICK
 62
     7
100
AcDbLine
 10
-574.999939
 20
80.0
 30
0.0
 11
-362.499969
 21
80.0
 31
0.0
  0
LINE
  5
342
330
1F
100
AcDbEntity
  8
PROJECTION
  6
PHL_THICK
 62
     7
100
AcDbLine
 10
-262.499969
 20
80.0
 30
0.0
 11
-49.999962
 21
80.0
 31
0.0
  0
LINE
  5
343
330
1F
100
AcDbEntity
  8
PROJECTION
  6
PHL_THICK
 62
     7
100
AcDbLine
 10
50.000038
 20
80.0
 30
0.0
 11
262.500031
 21
80.0
 31
0.0
  0
LINE
  5
344
330
1F
100
AcDbEntity
  8
PROJECTION
  6
PHL_THICK
 62
     7
100
AcDbLine
 10
362.500031
 20
80.0
 30
0.0
 11
575.000061
 21
80.0
 31
0.0
  0
LINE
  5
345
330
1F
100
AcDbEntity
  8
PROJECTION
  6
PHL_THICK
 62
     7
100
AcDbLine
 10
675.000061
 20
80.0
 30
0.0
 11
887.500061
 21
80.0
 31
0.0
  0
LINE
  5
346
330
1F
100
AcDbEntity
  8
PROJECTION
  6
PHL_THICK
 62
     7
100
AcDbLine
 10
987.500061
 20
80.0
 30
0.0
 11
1200.0
 21
80.0
 31
0.0
  0
LINE
  5
347
330
1F
100
AcDbEntity
  8
PROJECTION
  6
PHL_THICK
 62
     7
100
AcDbLine
 10
574.822815
 20
88.545654
 30
0.0
 11
675.177185
 21
88.545654
 31
0.0
  0
LINE
  5
348
330
1F
100
AcDbEntity
  8
PROJECTION
  6
PHL_THICK
 62
     7
100
AcDbLine
 10
-50.177158
 20
88.545654
 30
0.0
 11
50.177158
 21
88.545654
 31
0.0
  0
LINE
  5
349
330
1F
100
AcDbEntity
  8
PROJECTION
  6
PHL_THICK
 62
     7
100
AcDbLine
 10
-675.177185
 20
88.545654
 30
0.0
 11
-574.822815
 21
88.545654
 31
0.0
  0
LINE
  5
34A
330
1F
100
AcDbEntity
  8
PROJECTION
  6
PHL_THICK
 62
     7
100
AcDbLine
 10
-987.677185
 20
88.545654
 30
0.0
 11
-887.322815
 21
88.545654
 31
0.0
  0
LINE
  5
34B
330
1F
100
AcDbEntity
  8
PROJECTION
  6
PHL_THICK
 62
     7
100
AcDbLine
 10
-362.677155
 20
88.545654
 30
0.0
 11
-262.322845
 21
88.545654
 31
0.0
  0
LINE
  5
34C
330
1F
100
AcDbEntity
  8
PROJECTION
  6
PHL_THICK
 62
     7
100
AcDbLine
 10
262.322845
 20
88.545654
 30
0.0
 11
362.677155
 21
88.545654
 31
0.0
  0
LINE
  5
34D
330
1F
100
AcDbEntity
  8
PROJECTION
  6
PHL_THICK
 62
     7
100
AcDbLine
 10
887.322815
 20
88.545654
 30
0.0
 11
987.677185
 21
88.545654
 31
0.0
  0
LINE
  5
34E
330
1F
100
AcDbEntity
  8
PROJECTION
  6
PHL_THICK
 62
     7
100
AcDbLine
 10
1199.822876
 20
88.545654
 30
0.0
 11
1300.177124
 21
88.545654
 31
0.0
  0
LINE
  5
34F
330
1F
100
AcDbEntity
  8
PROJECTION
  6
PHL_THICK
 62
     7
100
AcDbLine
 10
-1200.0
 20
88.778801
 30
0.0
 11
1300.0
 21
88.778801
 31
0.0
  0
LINE
  5
350
330
1F
100
AcDbEntity
  8
PROJECTION
  6
PHL_THICK
 62
     7
100
AcDbLine
 10
-1200.0
 20
90.0
 30
0.0
 11
1300.0
 21
90.0
 31
0.0
  0
LINE
  5
351
330
1F
100
AcDbEntity
  8
PROJECTION
  6
PHL_THICK
 62
     7
100
AcDbLine
 10
-1200.0
 20
91.599998
 30
0.0
 11
1300.0
 21
91.599998
 31
0.0
  0
LINE
  5
352
330
1F
100
AcDbEntity
  8
PROJECTION
  6
PHL_THICK
 62
     7
100
AcDbLine
 10
-1200.0
 20
91.797592
 30
0.0
 11
1300.0
 21
91.797592
 31
0.0
  0
LINE
  5
353
330
1F
100
AcDbEntity
  8
PROJECTION
  6
PHL_THICK
 62
     7
100
AcDbLine
 10
-1200.0
 20
91.7976
 30
0.0
 11
1300.0
 21
91.7976
 31
0.0
  0
LINE
  5
354
330
1F
100
AcDbEntity
  8
PROJECTION
  6
PHL_THICK
 62
     7
100
AcDbLine
 10
-322.897217
 20
-7.7
 30
0.0
 11
-321.923187
 21
-4.699999
 31
0.0
  0
LINE
  5
355
330
1F
100
AcDbEntity
  8
PROJECTION
  6
PHL_THICK
 62
     7
100
AcDbLine
 10
-329.5
 20
-7.7
 30
0.0
 11
-328.52597
 21
-4.699999
 31
0.0
  0
LINE
  5
356
330
1F
100
AcDbEntity
  8
PROJECTION
  6
PHL_THICK
 62
     7
100
AcDbLine
 10
302.102783
 20
-7.7
 30
0.0
 11
303.076813
 21
-4.699999
 31
0.0
  0
LINE
  5
357
330
1F
100
AcDbEntity
  8
PROJECTION
  6
PHL_THICK
 62
     7
100
AcDbLine
 10
295.5
 20
-7.7
 30
0.0
 11
296.47403
 21
-4.699999
 31
0.0
  0
LINE
  5
358
330
1F
100
AcDbEntity
  8
PROJECTION
  6
PHL_THICK
 62
     7
100
AcDbLine
 10
651.720764
 20
16.300022
 30
0.0
 11
675.177185
 21
88.545654
 31
0.0
  0
LINE
  5
359
330
1F
100
AcDbEntity
  8
PROJECTION
  6
PHL_THICK
 62
     7
100
AcDbLine
 10
-598.279236
 20
16.300022
 30
0.0
 11
-574.822815
 21
88.545654
 31
0.0
  0
LINE
  5
35A
330
1F
100
AcDbEntity
  8
PROJECTION
  6
PHL_THICK
 62
     7
100
AcDbLine
 10
-910.779236
 20
16.300022
 30
0.0
 11
-887.322815
 21
88.545654
 31
0.0
  0
LINE
  5
35B
330
1F
100
AcDbEntity
  8
PROJECTION
  6
PHL_THICK
 62
     7
100
AcDbLine
 10
964.220764
 20
16.300022
 30
0.0
 11
987.677185
 21
88.545654
 31
0.0
  0
LINE
  5
35C
330
1F
100
AcDbEntity
  8
PROJECTION
  6
PHL_THICK
 62
     7
100
AcDbLine
 10
-17.0
 20
-7.7
 30
0.0
 11
-16.025974
 21
-4.699999
 31
0.0
  0
LINE
  5
35D
330
1F
100
AcDbEntity
  8
PROJECTION
  6
PHL_THICK
 62
     7
100
AcDbLine
 10
26.720787
 20
16.300022
 30
0.0
 11
50.177158
 21
88.545654
 31
0.0
  0
LINE
  5
35E
330
1F
100
AcDbEntity
  8
PROJECTION
  6
PHL_THICK
 62
     7
100
AcDbLine
 10
-285.779205
 20
16.300022
 30
0.0
 11
-262.322845
 21
88.545654
 31
0.0
  0
LINE
  5
35F
330
1F
100
AcDbEntity
  8
PROJECTION
  6
PHL_THICK
 62
     7
100
AcDbLine
 10
339.220795
 20
16.300022
 30
0.0
 11
362.677155
 21
88.545654
 31
0.0
  0
LINE
  5
360
330
1F
100
AcDbEntity
  8
PROJECTION
  6
PHL_THICK
 62
     7
100
AcDbLine
 10
-10.397226
 20
-7.7
 30
0.0
 11
-9.423201
 21
-4.699999
 31
0.0
  0
LINE
  5
361
330
1F
100
AcDbEntity
  8
PROJECTION
  6
PHL_THICK
 62
     7
100
AcDbLine
 10
1276.720825
 20
16.300022
 30
0.0
 11
1300.177124
 21
88.545654
 31
0.0
  0
LINE
  5
362
330
1F
100
AcDbEntity
  8
PROJECTION
  6
PHL_THICK
 62
     7
100
AcDbLine
 10
614.602783
 20
-7.7
 30
0.0
 11
615.576782
 21
-4.699999
 31
0.0
  0
LINE
  5
363
330
1F
100
AcDbEntity
  8
PROJECTION
  6
PHL_THICK
 62
     7
100
AcDbLine
 10
608.0
 20
-7.7
 30
0.0
 11
608.973999
 21
-4.699999
 31
0.0
  0
LINE
  5
364
330
1F
100
AcDbEntity
  8
PROJECTION
  6
PHL_THICK
 62
     7
100
AcDbLine
 10
-635.397217
 20
-7.7
 30
0.0
 11
-634.423218
 21
-4.699999
 31
0.0
  0
LINE
  5
365
330
1F
100
AcDbEntity
  8
PROJECTION
  6
PHL_THICK
 62
     7
100
AcDbLine
 10
-642.0
 20
-7.7
 30
0.0
 11
-641.026001
 21
-4.699999
 31
0.0
  0
LINE
  5
366
330
1F
100
AcDbEntity
  8
PROJECTION
  6
PHL_THICK
 62
     7
100
AcDbLine
 10
-947.897217
 20
-7.7
 30
0.0
 11
-946.923218
 21
-4.699999
 31
0.0
  0
LINE
  5
367
330
1F
100
AcDbEntity
  8
PROJECTION
  6
PHL_THICK
 62
     7
100
AcDbLine
 10
-954.5
 20
-7.7
 30
0.0
 11
-953.526001
 21
-4.699999
 31
0.0
  0
LINE
  5
368
330
1F
100
AcDbEntity
  8
PROJECTION
  6
PHL_THICK
 62
     7
100
AcDbLine
 10
927.102783
 20
-7.7
 30
0.0
 11
928.076782
 21
-4.699999
 31
0.0
  0
LINE
  5
369
330
1F
100
AcDbEntity
  8
PROJECTION
  6
PHL_THICK
 62
     7
100
AcDbLine
 10
920.5
 20
-7.7
 30
0.0
 11
921.473999
 21
-4.699999
 31
0.0
  0
LINE
  5
36A
330
1F
100
AcDbEntity
  8
PROJECTION
  6
PHL_THICK
 62
     7
100
AcDbLine
 10
1239.602783
 20
-7.7
 30
0.0
 11
1240.576782
 21
-4.699999
 31
0.0
  0
LINE
  5
36B
330
1F
100
AcDbEntity
  8
PROJECTION
  6
PHL_THICK
 62
     7
100
AcDbLine
 10
1233.0
 20
-7.7
 30
0.0
 11
1233.973999
 21
-4.699999
 31
0.0
  0
LINE
  5
36C
330
1F
100
AcDbEntity
  8
PROJECTION
  6
PHL_THICK
 62
     7
100
AcDbLine
 10
608.0
 20
-7.7
 30
0.0
 11
608.154785
 21
-4.699999
 31
0.0
  0
LINE
  5
36D
330
1F
100
AcDbEntity
  8
PROJECTION
  6
PHL_THICK
 62
     7
100
AcDbLine
 10
-642.0
 20
-7.7
 30
0.0
 11
-641.845215
 21
-4.699999
 31
0.0
  0
LINE
  5
36E
330
1F
100
AcDbEntity
  8
PROJECTION
  6
PHL_THICK
 62
     7
100
AcDbLine
 10
-954.5
 20
-7.7
 30
0.0
 11
-954.345215
 21
-4.699999
 31
0.0
  0
LINE
  5
36F
330
1F
100
AcDbEntity
  8
PROJECTION
  6
PHL_THICK
 62
     7
100
AcDbLine
 10
920.5
 20
-7.7
 30
0.0
 11
920.654785
 21
-4.699999
 31
0.0
  0
LINE
  5
370
330
1F
100
AcDbEntity
  8
PROJECTION
  6
PHL_THICK
 62
     7
100
AcDbLine
 10
1239.602783
 20
-7.7
 30
0.0
 11
1239.757568
 21
-4.699999
 31
0.0
  0
LINE
  5
371
330
1F
100
AcDbEntity
  8
PROJECTION
  6
PHL_THICK
 62
     7
100
AcDbLine
 10
1233.0
 20
-7.7
 30
0.0
 11
1233.154785
 21
-4.699999
 31
0.0
  0
LINE
  5
372
330
1F
100
AcDbEntity
  8
PROJECTION
  6
PHL_THICK
 62
     7
100
AcDbLine
 10
-17.0
 20
-7.7
 30
0.0
 11
-16.845236
 21
-4.699999
 31
0.0
  0
LINE
  5
373
330
1F
100
AcDbEntity
  8
PROJECTION
  6
PHL_THICK
 62
     7
100
AcDbLine
 10
-10.397226
 20
-7.7
 30
0.0
 11
-10.242463
 21
-4.699999
 31
0.0
  0
LINE
  5
374
330
1F
100
AcDbEntity
  8
PROJECTION
  6
PHL_THICK
 62
     7
100
AcDbLine
 10
-322.897217
 20
-7.7
 30
0.0
 11
-322.742462
 21
-4.699999
 31
0.0
  0
LINE
  5
375
330
1F
100
AcDbEntity
  8
PROJECTION
  6
PHL_THICK
 62
     7
100
AcDbLine
 10
-329.5
 20
-7.7
 30
0.0
 11
-329.345245
 21
-4.699999
 31
0.0
  0
LINE
  5
376
330
1F
100
AcDbEntity
  8
PROJECTION
  6
PHL_THICK
 62
     7
100
AcDbLine
 10
302.102783
 20
-7.7
 30
0.0
 11
302.257538
 21
-4.699999
 31
0.0
  0
LINE
  5
377
330
1F
100
AcDbEntity
  8
PROJECTION
  6
PHL_THICK
 62
     7
100
AcDbLine
 10
295.5
 20
-7.7
 30
0.0
 11
295.654755
 21
-4.699999
 31
0.0
  0
LINE
  5
378
330
1F
100
AcDbEntity
  8
PROJECTION
  6
PHL_THICK
 62
     7
100
AcDbLine
 10
614.602783
 20
-7.7
 30
0.0
 11
614.757507
 21
-4.699999
 31
0.0
  0
LINE
  5
379
330
1F
100
AcDbEntity
  8
PROJECTION
  6
PHL_THICK
 62
     7
100
AcDbLine
 10
-635.397217
 20
-7.7
 30
0.0
 11
-635.242493
 21
-4.699999
 31
0.0
  0
LINE
  5
37A
330
1F
100
AcDbEntity
  8
PROJECTION
  6
PHL_THICK
 62
     7
100
AcDbLine
 10
-947.897217
 20
-7.7
 30
0.0
 11
-947.742493
 21
-4.699999
 31
0.0
  0
LINE
  5
37B
330
1F
100
AcDbEntity
  8
PROJECTION
  6
PHL_THICK
 62
     7
100
AcDbLine
 10
927.102783
 20
-7.7
 30
0.0
 11
927.257507
 21
-4.699999
 31
0.0
  0
LINE
  5
37C
330
1F
100
AcDbEntity
  8
PROJECTION
  6
PHL_THICK
 62
     7
100
AcDbLine
 10
-1200.0
 20
91.600632
 30
0.0
 11
-1200.0
 21
91.797592
 31
0.0
  0
LINE
  5
37D
330
1F
100
AcDbEntity
  8
PROJECTION
  6
PHL_THICK
 62
     7
100
AcDbLine
 10
-1200.0
 20
80.0
 30
0.0
 11
-1200.0
 21
88.778801
 31
0.0
  0
LINE
  5
37E
330
1F
100
AcDbEntity
  8
PROJECTION
  6
PHL_THICK
 62
     7
100
AcDbLine
 10
-1200.0
 20
88.778801
 30
0.0
 11
-1200.0
 21
90.0
 31
0.0
  0
LINE
  5
37F
330
1F
100
AcDbEntity
  8
PROJECTION
  6
PHL_THICK
 62
     7
100
AcDbLine
 10
-1200.0
 20
90.0
 30
0.0
 11
-1200.0
 21
91.599998
 31
0.0
  0
LINE
  5
380
330
1F
100
AcDbEntity
  8
PROJECTION
  6
PHL_THICK
 62
     7
100
AcDbLine
 10
-1023.850586
 20
0.527019
 30
0.0
 11
-1023.850586
 21
4.922502
 31
0.0
  0
LINE
  5
381
330
1F
100
AcDbEntity
  8
PROJECTION
  6
PHL_THICK
 62
     7
100
AcDbLine
 10
-1023.850586
 20
7.677498
 30
0.0
 11
-1023.850586
 21
16.299999
 31
0.0
  0
LINE
  5
382
330
1F
100
AcDbEntity
  8
PROJECTION
  6
PHL_THICK
 62
     7
100
AcDbLine
 10
-1023.850525
 20
-4.598305
 30
0.0
 11
-1023.850525
 21
0.526811
 31
0.0
  0
LINE
  5
383
330
1F
100
AcDbEntity
  8
PROJECTION
  6
PHL_THICK
 62
     7
100
AcDbLine
 10
-987.5
 20
57.810001
 30
0.0
 11
-987.5
 21
87.610001
 31
0.0
  0
LINE
  5
384
330
1F
100
AcDbEntity
  8
PROJECTION
  6
PHL_THICK
 62
     7
100
AcDbLine
 10
-962.5
 20
-6.7
 30
0.0
 11
-962.5
 21
-4.699999
 31
0.0
  0
LINE
  5
385
330
1F
100
AcDbEntity
  8
PROJECTION
  6
PHL_THICK
 62
     7
100
AcDbLine
 10
-959.5
 20
-6.7
 30
0.0
 11
-959.5
 21
-4.699999
 31
0.0
  0
LINE
  5
386
330
1F
100
AcDbEntity
  8
PROJECTION
  6
PHL_THICK
 62
     7
100
AcDbLine
 10
-939.0
 20
-6.7
 30
0.0
 11
-939.0
 21
-4.7
 31
0.0
  0
LINE
  5
387
330
1F
100
AcDbEntity
  8
PROJECTION
  6
PHL_THICK
 62
     7
100
AcDbLine
 10
-936.0
 20
-6.7
 30
0.0
 11
-936.0
 21
-4.7
 31
0.0
  0
LINE
  5
388
330
1F
100
AcDbEntity
  8
PROJECTION
  6
PHL_THICK
 62
     7
100
AcDbLine
 10
-915.5
 20
-6.7
 30
0.0
 11
-915.5
 21
-4.7
 31
0.0
  0
LINE
  5
389
330
1F
100
AcDbEntity
  8
PROJECTION
  6
PHL_THICK
 62
     7
100
AcDbLine
 10
-912.5
 20
-6.7
 30
0.0
 11
-912.5
 21
-4.699759
 31
0.0
  0
LINE
  5
38A
330
1F
100
AcDbEntity
  8
PROJECTION
  6
PHL_THICK
 62
     7
100
AcDbLine
 10
-887.5
 20
57.810001
 30
0.0
 11
-887.5
 21
87.610001
 31
0.0
  0
LINE
  5
38B
330
1F
100
AcDbEntity
  8
PROJECTION
  6
PHL_THICK
 62
     7
100
AcDbLine
 10
-851.149658
 20
7.677498
 30
0.0
 11
-851.149658
 21
16.299999
 31
0.0
  0
LINE
  5
38C
330
1F
100
AcDbEntity
  8
PROJECTION
  6
PHL_THICK
 62
     7
100
AcDbLine
 10
-851.149658
 20
0.527019
 30
0.0
 11
-851.149658
 21
4.922502
 31
0.0
  0
LINE
  5
38D
330
1F
100
AcDbEntity
  8
PROJECTION
  6
PHL_THICK
 62
     7
100
AcDbLine
 10
-851.149597
 20
-3.896152
 30
0.0
 11
-851.149597
 21
13.85
 31
0.0
  0
LINE
  5
38E
330
1F
100
AcDbEntity
  8
PROJECTION
  6
PHL_THICK
 62
     7
100
AcDbLine
 10
-851.149475
 20
-0.2
 30
0.0
 11
-851.149475
 21
4.922525
 31
0.0
  0
LINE
  5
38F
330
1F
100
AcDbEntity
  8
PROJECTION
  6
PHL_THICK
 62
     7
100
AcDbLine
 10
-851.149475
 20
7.677521
 30
0.0
 11
-851.149475
 21
11.3
 31
0.0
  0
LINE
  5
390
330
1F
100
AcDbEntity
  8
PROJECTION
  6
PHL_THICK
 62
     7
100
AcDbLine
 10
-711.350586
 20
0.527019
 30
0.0
 11
-711.350586
 21
4.922502
 31
0.0
  0
LINE
  5
391
330
1F
100
AcDbEntity
  8
PROJECTION
  6
PHL_THICK
 62
     7
100
AcDbLine
 10
-711.350586
 20
7.677498
 30
0.0
 11
-711.350586
 21
16.299999
 31
0.0
  0
LINE
  5
392
330
1F
100
AcDbEntity
  8
PROJECTION
  6
PHL_THICK
 62
     7
100
AcDbLine
 10
-711.350525
 20
-4.598305
 30
0.0
 11
-711.350525
 21
0.526811
 31
0.0
  0
LINE
  5
393
330
1F
100
AcDbEntity
  8
PROJECTION
  6
PHL_THICK
 62
     7
100
AcDbLine
 10
-675.0
 20
57.810001
 30
0.0
 11
-675.0
 21
87.610001
 31
0.0
  0
LINE
  5
394
330
1F
100
AcDbEntity
  8
PROJECTION
  6
PHL_THICK
 62
     7
100
AcDbLine
 10
-650.0
 20
-6.7
 30
0.0
 11
-650.0
 21
-4.699999
 31
0.0
  0
LINE
  5
395
330
1F
100
AcDbEntity
  8
PROJECTION
  6
PHL_THICK
 62
     7
100
AcDbLine
 10
-647.0
 20
-6.7
 30
0.0
 11
-647.0
 21
-4.699999
 31
0.0
  0
LINE
  5
396
330
1F
100
AcDbEntity
  8
PROJECTION
  6
PHL_THICK
 62
     7
100
AcDbLine
 10
-626.5
 20
-6.7
 30
0.0
 11
-626.5
 21
-4.7
 31
0.0
  0
LINE
  5
397
330
1F
100
AcDbEntity
  8
PROJECTION
  6
PHL_THICK
 62
     7
100
AcDbLine
 10
-623.5
 20
-6.7
 30
0.0
 11
-623.5
 21
-4.7
 31
0.0
  0
LINE
  5
398
330
1F
100
AcDbEntity
  8
PROJECTION
  6
PHL_THICK
 62
     7
100
AcDbLine
 10
-603.0
 20
-6.7
 30
0.0
 11
-603.0
 21
-4.7
 31
0.0
  0
LINE
  5
399
330
1F
100
AcDbEntity
  8
PROJECTION
  6
PHL_THICK
 62
     7
100
AcDbLine
 10
-600.0
 20
-6.7
 30
0.0
 11
-600.0
 21
-4.699759
 31
0.0
  0
LINE
  5
39A
330
1F
100
AcDbEntity
  8
PROJECTION
  6
PHL_THICK
 62
     7
100
AcDbLine
 10
-575.0
 20
57.810001
 30
0.0
 11
-575.0
 21
87.610001
 31
0.0
  0
LINE
  5
39B
330
1F
100
AcDbEntity
  8
PROJECTION
  6
PHL_THICK
 62
     7
100
AcDbLine
 10
-538.649658
 20
7.677498
 30
0.0
 11
-538.649658
 21
16.299999
 31
0.0
  0
LINE
  5
39C
330
1F
100
AcDbEntity
  8
PROJECTION
  6
PHL_THICK
 62
     7
100
AcDbLine
 10
-538.649658
 20
0.527019
 30
0.0
 11
-538.649658
 21
4.922502
 31
0.0
  0
LINE
  5
39D
330
1F
100
AcDbEntity
  8
PROJECTION
  6
PHL_THICK
 62
     7
100
AcDbLine
 10
-538.649597
 20
-3.896152
 30
0.0
 11
-538.649597
 21
13.85
 31
0.0
  0
LINE
  5
39E
330
1F
100
AcDbEntity
  8
PROJECTION
  6
PHL_THICK
 62
     7
100
AcDbLine
 10
-538.649475
 20
-0.2
 30
0.0
 11
-538.649475
 21
4.922525
 31
0.0
  0
LINE
  5
39F
330
1F
100
AcDbEntity
  8
PROJECTION
  6
PHL_THICK
 62
     7
100
AcDbLine
 10
-538.649475
 20
7.677521
 30
0.0
 11
-538.649475
 21
11.3
 31
0.0
  0
LINE
  5
3A0
330
1F
100
AcDbEntity
  8
PROJECTION
  6
PHL_THICK
 62
     7
100
AcDbLine
 10
-398.850586
 20
0.527019
 30
0.0
 11
-398.850586
 21
4.922502
 31
0.0
  0
LINE
  5
3A1
330
1F
100
AcDbEntity
  8
PROJECTION
  6
PHL_THICK
 62
     7
100
AcDbLine
 10
-398.850586
 20
7.677498
 30
0.0
 11
-398.850586
 21
16.299999
 31
0.0
  0
LINE
  5
3A2
330
1F
100
AcDbEntity
  8
PROJECTION
  6
PHL_THICK
 62
     7
100
AcDbLine
 10
-398.850555
 20
-4.598305
 30
0.0
 11
-398.850555
 21
0.526811
 31
0.0
  0
LINE
  5
3A3
330
1F
100
AcDbEntity
  8
PROJECTION
  6
PHL_THICK
 62
     7
100
AcDbLine
 10
-362.5
 20
57.810001
 30
0.0
 11
-362.5
 21
87.610001
 31
0.0
  0
LINE
  5
3A4
330
1F
100
AcDbEntity
  8
PROJECTION
  6
PHL_THICK
 62
     7
100
AcDbLine
 10
-337.5
 20
-6.7
 30
0.0
 11
-337.5
 21
-4.699999
 31
0.0
  0
LINE
  5
3A5
330
1F
100
AcDbEntity
  8
PROJECTION
  6
PHL_THICK
 62
     7
100
AcDbLine
 10
-334.5
 20
-6.7
 30
0.0
 11
-334.5
 21
-4.699999
 31
0.0
  0
LINE
  5
3A6
330
1F
100
AcDbEntity
  8
PROJECTION
  6
PHL_THICK
 62
     7
100
AcDbLine
 10
-314.0
 20
-6.7
 30
0.0
 11
-314.0
 21
-4.7
 31
0.0
  0
LINE
  5
3A7
330
1F
100
AcDbEntity
  8
PROJECTION
  6
PHL_THICK
 62
     7
100
AcDbLine
 10
-311.0
 20
-6.7
 30
0.0
 11
-311.0
 21
-4.7
 31
0.0
  0
LINE
  5
3A8
330
1F
100
AcDbEntity
  8
PROJECTION
  6
PHL_THICK
 62
     7
100
AcDbLine
 10
-290.5
 20
-6.7
 30
0.0
 11
-290.5
 21
-4.7
 31
0.0
  0
LINE
  5
3A9
330
1F
100
AcDbEntity
  8
PROJECTION
  6
PHL_THICK
 62
     7
100
AcDbLine
 10
-287.5
 20
-6.7
 30
0.0
 11
-287.5
 21
-4.699759
 31
0.0
  0
LINE
  5
3AA
330
1F
100
AcDbEntity
  8
PROJECTION
  6
PHL_THICK
 62
     7
100
AcDbLine
 10
-262.5
 20
57.810001
 30
0.0
 11
-262.5
 21
87.610001
 31
0.0
  0
LINE
  5
3AB
330
1F
100
AcDbEntity
  8
PROJECTION
  6
PHL_THICK
 62
     7
100
AcDbLine
 10
-226.149628
 20
7.677498
 30
0.0
 11
-226.149628
 21
16.299999
 31
0.0
  0
LINE
  5
3AC
330
1F
100
AcDbEntity
  8
PROJECTION
  6
PHL_THICK
 62
     7
100
AcDbLine
 10
-226.149628
 20
0.527019
 30
0.0
 11
-226.149628
 21
4.922502
 31
0.0
  0
LINE
  5
3AD
330
1F
100
AcDbEntity
  8
PROJECTION
  6
PHL_THICK
 62
     7
100
AcDbLine
 10
-226.149612
 20
-3.896152
 30
0.0
 11
-226.149612
 21
13.85
 31
0.0
  0
LINE
  5
3AE
330
1F
100
AcDbEntity
  8
PROJECTION
  6
PHL_THICK
 62
     7
100
AcDbLine
 10
-226.149445
 20
-0.2
 30
0.0
 11
-226.149445
 21
4.922525
 31
0.0
  0
LINE
  5
3AF
330
1F
100
AcDbEntity
  8
PROJECTION
  6
PHL_THICK
 62
     7
100
AcDbLine
 10
-226.149445
 20
7.677521
 30
0.0
 11
-226.149445
 21
11.3
 31
0.0
  0
LINE
  5
3B0
330
1F
100
AcDbEntity
  8
PROJECTION
  6
PHL_THICK
 62
     7
100
AcDbLine
 10
-86.350578
 20
0.527019
 30
0.0
 11
-86.350578
 21
4.922502
 31
0.0
  0
LINE
  5
3B1
330
1F
100
AcDbEntity
  8
PROJECTION
  6
PHL_THICK
 62
     7
100
AcDbLine
 10
-86.350578
 20
7.677498
 30
0.0
 11
-86.350578
 21
16.299999
 31
0.0
  0
LINE
  5
3B2
330
1F
100
AcDbEntity
  8
PROJECTION
  6
PHL_THICK
 62
     7
100
AcDbLine
 10
-86.350548
 20
-4.598305
 30
0.0
 11
-86.350548
 21
0.526811
 31
0.0
  0
LINE
  5
3B3
330
1F
100
AcDbEntity
  8
PROJECTION
  6
PHL_THICK
 62
     7
100
AcDbLine
 10
-50.0
 20
57.810001
 30
0.0
 11
-50.0
 21
87.610001
 31
0.0
  0
LINE
  5
3B4
330
1F
100
AcDbEntity
  8
PROJECTION
  6
PHL_THICK
 62
     7
100
AcDbLine
 10
-25.0
 20
-6.7
 30
0.0
 11
-25.0
 21
-4.699999
 31
0.0
  0
LINE
  5
3B5
330
1F
100
AcDbEntity
  8
PROJECTION
  6
PHL_THICK
 62
     7
100
AcDbLine
 10
-22.0
 20
-6.7
 30
0.0
 11
-22.0
 21
-4.699999
 31
0.0
  0
LINE
  5
3B6
330
1F
100
AcDbEntity
  8
PROJECTION
  6
PHL_THICK
 62
     7
100
AcDbLine
 10
-1.5
 20
-6.7
 30
0.0
 11
-1.5
 21
-4.7
 31
0.0
  0
LINE
  5
3B7
330
1F
100
AcDbEntity
  8
PROJECTION
  6
PHL_THICK
 62
     7
100
AcDbLine
 10
1.5
 20
-6.7
 30
0.0
 11
1.5
 21
-4.7
 31
0.0
  0
LINE
  5
3B8
330
1F
100
AcDbEntity
  8
PROJECTION
  6
PHL_THICK
 62
     7
100
AcDbLine
 10
22.0
 20
-6.7
 30
0.0
 11
22.0
 21
-4.7
 31
0.0
  0
LINE
  5
3B9
330
1F
100
AcDbEntity
  8
PROJECTION
  6
PHL_THICK
 62
     7
100
AcDbLine
 10
25.0
 20
-6.7
 30
0.0
 11
25.0
 21
-4.699759
 31
0.0
  0
LINE
  5
3BA
330
1F
100
AcDbEntity
  8
PROJECTION
  6
PHL_THICK
 62
     7
100
AcDbLine
 10
50.0
 20
57.810001
 30
0.0
 11
50.0
 21
87.610001
 31
0.0
  0
LINE
  5
3BB
330
1F
100
AcDbEntity
  8
PROJECTION
  6
PHL_THICK
 62
     7
100
AcDbLine
 10
86.350372
 20
7.677498
 30
0.0
 11
86.350372
 21
16.299999
 31
0.0
  0
LINE
  5
3BC
330
1F
100
AcDbEntity
  8
PROJECTION
  6
PHL_THICK
 62
     7
100
AcDbLine
 10
86.350372
 20
0.527019
 30
0.0
 11
86.350372
 21
4.922502
 31
0.0
  0
LINE
  5
3BD
330
1F
100
AcDbEntity
  8
PROJECTION
  6
PHL_THICK
 62
     7
100
AcDbLine
 10
86.350388
 20
-3.896152
 30
0.0
 11
86.350388
 21
13.85
 31
0.0
  0
LINE
  5
3BE
330
1F
100
AcDbEntity
  8
PROJECTION
  6
PHL_THICK
 62
     7
100
AcDbLine
 10
86.350548
 20
-0.2
 30
0.0
 11
86.350548
 21
4.922525
 31
0.0
  0
LINE
  5
3BF
330
1F
100
AcDbEntity
  8
PROJECTION
  6
PHL_THICK
 62
     7
100
AcDbLine
 10
86.350548
 20
7.677521
 30
0.0
 11
86.350548
 21
11.3
 31
0.0
  0
LINE
  5
3C0
330
1F
100
AcDbEntity
  8
PROJECTION
  6
PHL_THICK
 62
     7
100
AcDbLine
 10
226.149429
 20
0.527019
 30
0.0
 11
226.149429
 21
4.922502
 31
0.0
  0
LINE
  5
3C1
330
1F
100
AcDbEntity
  8
PROJECTION
  6
PHL_THICK
 62
     7
100
AcDbLine
 10
226.149429
 20
7.677498
 30
0.0
 11
226.149429
 21
16.299999
 31
0.0
  0
LINE
  5
3C2
330
1F
100
AcDbEntity
  8
PROJECTION
  6
PHL_THICK
 62
     7
100
AcDbLine
 10
226.149445
 20
-4.598305
 30
0.0
 11
226.149445
 21
0.526811
 31
0.0
  0
LINE
  5
3C3
330
1F
100
AcDbEntity
  8
PROJECTION
  6
PHL_THICK
 62
     7
100
AcDbLine
 10
262.5
 20
57.810001
 30
0.0
 11
262.5
 21
87.610001
 31
0.0
  0
LINE
  5
3C4
330
1F
100
AcDbEntity
  8
PROJECTION
  6
PHL_THICK
 62
     7
100
AcDbLine
 10
287.5
 20
-6.7
 30
0.0
 11
287.5
 21
-4.699999
 31
0.0
  0
LINE
  5
3C5
330
1F
100
AcDbEntity
  8
PROJECTION
  6
PHL_THICK
 62
     7
100
AcDbLine
 10
290.5
 20
-6.7
 30
0.0
 11
290.5
 21
-4.699999
 31
0.0
  0
LINE
  5
3C6
330
1F
100
AcDbEntity
  8
PROJECTION
  6
PHL_THICK
 62
     7
100
AcDbLine
 10
311.0
 20
-6.7
 30
0.0
 11
311.0
 21
-4.7
 31
0.0
  0
LINE
  5
3C7
330
1F
100
AcDbEntity
  8
PROJECTION
  6
PHL_THICK
 62
     7
100
AcDbLine
 10
314.0
 20
-6.7
 30
0.0
 11
314.0
 21
-4.7
 31
0.0
  0
LINE
  5
3C8
330
1F
100
AcDbEntity
  8
PROJECTION
  6
PHL_THICK
 62
     7
100
AcDbLine
 10
334.5
 20
-6.7
 30
0.0
 11
334.5
 21
-4.7
 31
0.0
  0
LINE
  5
3C9
330
1F
100
AcDbEntity
  8
PROJECTION
  6
PHL_THICK
 62
     7
100
AcDbLine
 10
337.5
 20
-6.7
 30
0.0
 11
337.5
 21
-4.699759
 31
0.0
  0
LINE
  5
3CA
330
1F
100
AcDbEntity
  8
PROJECTION
  6
PHL_THICK
 62
     7
100
AcDbLine
 10
362.5
 20
57.810001
 30
0.0
 11
362.5
 21
87.610001
 31
0.0
  0
LINE
  5
3CB
330
1F
100
AcDbEntity
  8
PROJECTION
  6
PHL_THICK
 62
     7
100
AcDbLine
 10
398.850372
 20
-3.896152
 30
0.0
 11
398.850372
 21
16.299999
 31
0.0
  0
LINE
  5
3CC
330
1F
100
AcDbEntity
  8
PROJECTION
  6
PHL_THICK
 62
     7
100
AcDbLine
 10
398.850555
 20
-0.2
 30
0.0
 11
398.850555
 21
4.922525
 31
0.0
  0
LINE
  5
3CD
330
1F
100
AcDbEntity
  8
PROJECTION
  6
PHL_THICK
 62
     7
100
AcDbLine
 10
398.850555
 20
7.677521
 30
0.0
 11
398.850555
 21
11.3
 31
0.0
  0
LINE
  5
3CE
330
1F
100
AcDbEntity
  8
PROJECTION
  6
PHL_THICK
 62
     7
100
AcDbLine
 10
538.649414
 20
0.527019
 30
0.0
 11
538.649414
 21
4.922502
 31
0.0
  0
LINE
  5
3CF
330
1F
100
AcDbEntity
  8
PROJECTION
  6
PHL_THICK
 62
     7
100
AcDbLine
 10
538.649414
 20
7.677498
 30
0.0
 11
538.649414
 21
16.299999
 31
0.0
  0
LINE
  5
3D0
330
1F
100
AcDbEntity
  8
PROJECTION
  6
PHL_THICK
 62
     7
100
AcDbLine
 10
538.649475
 20
-4.598305
 30
0.0
 11
538.649475
 21
0.526811
 31
0.0
  0
LINE
  5
3D1
330
1F
100
AcDbEntity
  8
PROJECTION
  6
PHL_THICK
 62
     7
100
AcDbLine
 10
575.0
 20
57.810001
 30
0.0
 11
575.0
 21
87.610001
 31
0.0
  0
LINE
  5
3D2
330
1F
100
AcDbEntity
  8
PROJECTION
  6
PHL_THICK
 62
     7
100
AcDbLine
 10
600.0
 20
-6.7
 30
0.0
 11
600.0
 21
-4.699999
 31
0.0
  0
LINE
  5
3D3
330
1F
100
AcDbEntity
  8
PROJECTION
  6
PHL_THICK
 62
     7
100
AcDbLine
 10
603.0
 20
-6.7
 30
0.0
 11
603.0
 21
-4.699999
 31
0.0
  0
LINE
  5
3D4
330
1F
100
AcDbEntity
  8
PROJECTION
  6
PHL_THICK
 62
     7
100
AcDbLine
 10
623.5
 20
-6.7
 30
0.0
 11
623.5
 21
-4.7
 31
0.0
  0
LINE
  5
3D5
330
1F
100
AcDbEntity
  8
PROJECTION
  6
PHL_THICK
 62
     7
100
AcDbLine
 10
626.5
 20
-6.7
 30
0.0
 11
626.5
 21
-4.7
 31
0.0
  0
LINE
  5
3D6
330
1F
100
AcDbEntity
  8
PROJECTION
  6
PHL_THICK
 62
     7
100
AcDbLine
 10
647.0
 20
-6.7
 30
0.0
 11
647.0
 21
-4.7
 31
0.0
  0
LINE
  5
3D7
330
1F
100
AcDbEntity
  8
PROJECTION
  6
PHL_THICK
 62
     7
100
AcDbLine
 10
650.0
 20
-6.7
 30
0.0
 11
650.0
 21
-4.699759
 31
0.0
  0
LINE
  5
3D8
330
1F
100
AcDbEntity
  8
PROJECTION
  6
PHL_THICK
 62
     7
100
AcDbLine
 10
675.0
 20
57.810001
 30
0.0
 11
675.0
 21
87.610001
 31
0.0
  0
LINE
  5
3D9
330
1F
100
AcDbEntity
  8
PROJECTION
  6
PHL_THICK
 62
     7
100
AcDbLine
 10
711.350342
 20
7.677498
 30
0.0
 11
711.350342
 21
16.299999
 31
0.0
  0
LINE
  5
3DA
330
1F
100
AcDbEntity
  8
PROJECTION
  6
PHL_THICK
 62
     7
100
AcDbLine
 10
711.350342
 20
0.527019
 30
0.0
 11
711.350342
 21
4.922502
 31
0.0
  0
LINE
  5
3DB
330
1F
100
AcDbEntity
  8
PROJECTION
  6
PHL_THICK
 62
     7
100
AcDbLine
 10
711.350403
 20
-3.896152
 30
0.0
 11
711.350403
 21
13.85
 31
0.0
  0
LINE
  5
3DC
330
1F
100
AcDbEntity
  8
PROJECTION
  6
PHL_THICK
 62
     7
100
AcDbLine
 10
711.350525
 20
-0.2
 30
0.0
 11
711.350525
 21
4.922525
 31
0.0
  0
LINE
  5
3DD
330
1F
100
AcDbEntity
  8
PROJECTION
  6
PHL_THICK
 62
     7
100
AcDbLine
 10
711.350525
 20
7.677521
 30
0.0
 11
711.350525
 21
11.3
 31
0.0
  0
LINE
  5
3DE
330
1F
100
AcDbEntity
  8
PROJECTION
  6
PHL_THICK
 62
     7
100
AcDbLine
 10
851.149414
 20
0.527019
 30
0.0
 11
851.149414
 21
4.922502
 31
0.0
  0
LINE
  5
3DF
330
1F
100
AcDbEntity
  8
PROJECTION
  6
PHL_THICK
 62
     7
100
AcDbLine
 10
851.149414
 20
7.677498
 30
0.0
 11
851.149414
 21
16.299999
 31
0.0
  0
LINE
  5
3E0
330
1F
100
AcDbEntity
  8
PROJECTION
  6
PHL_THICK
 62
     7
100
AcDbLine
 10
851.149475
 20
-4.598305
 30
0.0
 11
851.149475
 21
0.526811
 31
0.0
  0
LINE
  5
3E1
330
1F
100
AcDbEntity
  8
PROJECTION
  6
PHL_THICK
 62
     7
100
AcDbLine
 10
887.5
 20
57.810001
 30
0.0
 11
887.5
 21
87.610001
 31
0.0
  0
LINE
  5
3E2
330
1F
100
AcDbEntity
  8
PROJECTION
  6
PHL_THICK
 62
     7
100
AcDbLine
 10
912.5
 20
-6.7
 30
0.0
 11
912.5
 21
-4.699999
 31
0.0
  0
LINE
  5
3E3
330
1F
100
AcDbEntity
  8
PROJECTION
  6
PHL_THICK
 62
     7
100
AcDbLine
 10
915.5
 20
-6.7
 30
0.0
 11
915.5
 21
-4.699999
 31
0.0
  0
LINE
  5
3E4
330
1F
100
AcDbEntity
  8
PROJECTION
  6
PHL_THICK
 62
     7
100
AcDbLine
 10
936.0
 20
-6.7
 30
0.0
 11
936.0
 21
-4.7
 31
0.0
  0
LINE
  5
3E5
330
1F
100
AcDbEntity
  8
PROJECTION
  6
PHL_THICK
 62
     7
100
AcDbLine
 10
939.0
 20
-6.7
 30
0.0
 11
939.0
 21
-4.7
 31
0.0
  0
LINE
  5
3E6
330
1F
100
AcDbEntity
  8
PROJECTION
  6
PHL_THICK
 62
     7
100
AcDbLine
 10
959.5
 20
-6.7
 30
0.0
 11
959.5
 21
-4.7
 31
0.0
  0
LINE
  5
3E7
330
1F
100
AcDbEntity
  8
PROJECTION
  6
PHL_THICK
 62
     7
100
AcDbLine
 10
962.5
 20
-6.7
 30
0.0
 11
962.5
 21
-4.699759
 31
0.0
  0
LINE
  5
3E8
330
1F
100
AcDbEntity
  8
PROJECTION
  6
PHL_THICK
 62
     7
100
AcDbLine
 10
987.5
 20
57.810001
 30
0.0
 11
987.5
 21
87.610001
 31
0.0
  0
LINE
  5
3E9
330
1F
100
AcDbEntity
  8
PROJECTION
  6
PHL_THICK
 62
     7
100
AcDbLine
 10
1023.850342
 20
7.677498
 30
0.0
 11
1023.850342
 21
16.299999
 31
0.0
  0
LINE
  5
3EA
330
1F
100
AcDbEntity
  8
PROJECTION
  6
PHL_THICK
 62
     7
100
AcDbLine
 10
1023.850342
 20
0.527019
 30
0.0
 11
1023.850342
 21
4.922502
 31
0.0
  0
LINE
  5
3EB
330
1F
100
AcDbEntity
  8
PROJECTION
  6
PHL_THICK
 62
     7
100
AcDbLine
 10
1023.850403
 20
-3.896152
 30
0.0
 11
1023.850403
 21
13.85
 31
0.0
  0
LINE
  5
3EC
330
1F
100
AcDbEntity
  8
PROJECTION
  6
PHL_THICK
 62
     7
100
AcDbLine
 10
1023.850525
 20
-0.2
 30
0.0
 11
1023.850525
 21
4.922525
 31
0.0
  0
LINE
  5
3ED
330
1F
100
AcDbEntity
  8
PROJECTION
  6
PHL_THICK
 62
     7
100
AcDbLine
 10
1023.850525
 20
7.677521
 30
0.0
 11
1023.850525
 21
11.3
 31
0.0
  0
LINE
  5
3EE
330
1F
100
AcDbEntity
  8
PROJECTION
  6
PHL_THICK
 62
     7
100
AcDbLine
 10
1163.649414
 20
0.527019
 30
0.0
 11
1163.649414
 21
4.922502
 31
0.0
  0
LINE
  5
3EF
330
1F
100
AcDbEntity
  8
PROJECTION
  6
PHL_THICK
 62
     7
100
AcDbLine
 10
1163.649414
 20
7.677498
 30
0.0
 11
1163.649414
 21
16.299999
 31
0.0
  0
LINE
  5
3F0
330
1F
100
AcDbEntity
  8
PROJECTION
  6
PHL_THICK
 62
     7
100
AcDbLine
 10
1163.649414
 20
-0.2
 30
0.0
 11
1163.649414
 21
0.526811
 31
0.0
  0
LINE
  5
3F1
330
1F
100
AcDbEntity
  8
PROJECTION
  6
PHL_THICK
 62
     7
100
AcDbLine
 10
1163.649414
 20
-4.598305
 30
0.0
 11
1163.649414
 21
-0.2
 31
0.0
  0
LINE
  5
3F2
330
1F
100
AcDbEntity
  8
PROJECTION
  6
PHL_THICK
 62
     7
100
AcDbLine
 10
1200.0
 20
57.599998
 30
0.0
 11
1200.0
 21
87.400002
 31
0.0
  0
LINE
  5
3F3
330
1F
100
AcDbEntity
  8
PROJECTION
  6
PHL_THICK
 62
     7
100
AcDbLine
 10
1225.0
 20
-6.7
 30
0.0
 11
1225.0
 21
-4.699999
 31
0.0
  0
LINE
  5
3F4
330
1F
100
AcDbEntity
  8
PROJECTION
  6
PHL_THICK
 62
     7
100
AcDbLine
 10
1228.0
 20
-6.7
 30
0.0
 11
1228.0
 21
-4.699999
 31
0.0
  0
LINE
  5
3F5
330
1F
100
AcDbEntity
  8
PROJECTION
  6
PHL_THICK
 62
     7
100
AcDbLine
 10
1248.5
 20
-6.7
 30
0.0
 11
1248.5
 21
-4.7
 31
0.0
  0
LINE
  5
3F6
330
1F
100
AcDbEntity
  8
PROJECTION
  6
PHL_THICK
 62
     7
100
AcDbLine
 10
1251.5
 20
-6.7
 30
0.0
 11
1251.5
 21
-4.7
 31
0.0
  0
LINE
  5
3F7
330
1F
100
AcDbEntity
  8
PROJECTION
  6
PHL_THICK
 62
     7
100
AcDbLine
 10
1272.0
 20
-6.7
 30
0.0
 11
1272.0
 21
-4.7
 31
0.0
  0
LINE
  5
3F8
330
1F
100
AcDbEntity
  8
PROJECTION
  6
PHL_THICK
 62
     7
100
AcDbLine
 10
1275.0
 20
-6.7
 30
0.0
 11
1275.0
 21
-4.699759
 31
0.0
  0
LINE
  5
3F9
330
1F
100
AcDbEntity
  8
PROJECTION
  6
PHL_THICK
 62
     7
100
AcDbLine
 10
1300.0
 20
57.599998
 30
0.0
 11
1300.0
 21
87.400002
 31
0.0
  0
LINE
  5
3FA
330
1F
100
AcDbEntity
  8
PROJECTION
  6
PHL_THICK
 62
     7
100
AcDbLine
 10
1300.0
 20
91.600632
 30
0.0
 11
1300.0
 21
91.797592
 31
0.0
  0
LINE
  5
3FB
330
1F
100
AcDbEntity
  8
PROJECTION
  6
PHL_THICK
 62
     7
100
AcDbLine
 10
1300.0
 20
88.545731
 30
0.0
 11
1300.0
 21
88.778801
 31
0.0
  0
LINE
  5
3FC
330
1F
100
AcDbEntity
  8
PROJECTION
  6
PHL_THICK
 62
     7
100
AcDbLine
 10
1300.0
 20
87.400032
 30
0.0
 11
1300.0
 21
87.99984
 31
0.0
  0
LINE
  5
3FD
330
1F
100
AcDbEntity
  8
PROJECTION
  6
PHL_THICK
 62
     7
100
AcDbLine
 10
1300.0
 20
88.778801
 30
0.0
 11
1300.0
 21
90.0
 31
0.0
  0
LINE
  5
3FE
330
1F
100
AcDbEntity
  8
PROJECTION
  6
PHL_THICK
 62
     7
100
AcDbLine
 10
1300.0
 20
90.0
 30
0.0
 11
1300.0
 21
91.599998
 31
0.0
  0
LINE
  5
3FF
330
1F
100
AcDbEntity
  8
PROJECTION
  6
PHL_THICK
 62
     7
100
AcDbLine
 10
1336.350342
 20
-3.896152
 30
0.0
 11
1336.350342
 21
16.299999
 31
0.0
  0
LINE
  5
400
330
1F
100
AcDbEntity
  8
PROJECTION
  6
PHL_THICK
 62
     7
100
AcDbLine
 10
1336.350586
 20
-0.2
 30
0.0
 11
1336.350586
 21
4.922525
 31
0.0
  0
LINE
  5
401
330
1F
100
AcDbEntity
  8
PROJECTION
  6
PHL_THICK
 62
     7
100
AcDbLine
 10
1336.350586
 20
7.677521
 30
0.0
 11
1336.350586
 21
11.3
 31
0.0
  0
ELLIPSE
  5
402
330
1F
100
AcDbEntity
  8
PROJECTION
  6
PHL_THICK
 62
     7
100
AcDbEllipse
 10
-1024.773553
 20
1.3
 30
0.0
 11
3.673940397442059E-16
 21
6.0
 31
0.0
210
0.0
220
0.0
230
1.0
 40
0.8390941666666666
 41
3.325973565510844
 42
3.769560375413934
  0
ELLIPSE
  5
403
330
1F
100
AcDbEntity
  8
PROJECTION
  6
PHL_THICK
 62
     7
100
AcDbEllipse
 10
-1023.850472
 20
6.3
 30
0.0
 11
1.163414459189985E-15
 21
19.0
 31
0.0
210
0.0
220
0.0
230
1.0
 40
0.0000054210526316
 41
1.5051826541866
 42
1.636410004939757
  0
ELLIPSE
  5
404
330
1F
100
AcDbEntity
  8
PROJECTION
  6
PHL_THICK
 62
     7
100
AcDbEllipse
 10
-1018.8579
 20
1.3
 30
0.0
 11
3.673940397442059E-16
 21
6.0
 31
0.0
210
0.0
220
0.0
230
1.0
 40
0.839105
 41
1.699985308181837
 42
2.513628364757002
  0
ARC
  5
405
330
1F
100
AcDbEntity
  8
PROJECTION
  6
PHL_THICK
 62
     7
100
AcDbCircle
 10
-987.4
 20
57.81
 30
0.0
 40
0.1000004552
100
AcDbArc
 50
179.9992131625011
 51
269.9860119009137
  0
ARC
  5
406
330
1F
100
AcDbEntity
  8
PROJECTION
  6
PHL_THICK
 62
     7
100
AcDbCircle
 10
-987.4
 20
87.61
 30
0.0
 40
0.1000004552
100
AcDbArc
 50
90.0139883552068
 51
179.9996502954989
  0
ELLIPSE
  5
407
330
1F
100
AcDbEntity
  8
PROJECTION
  6
PHL_THICK
 62
     7
100
AcDbEllipse
 10
-915.108309
 20
1.3
 30
0.0
 11
270.365321
 21
0.0
 31
0.0
210
0.0
220
0.0
230
1.0
 40
0.0221921952778848
 41
4.712388874389979
 42
4.911992545807923
  0
ARC
  5
408
330
1F
100
AcDbEntity
  8
PROJECTION
  6
PHL_THICK
 62
     7
100
AcDbCircle
 10
-887.6
 20
57.81
 30
0.0
 40
0.1000004552
100
AcDbArc
 50
270.0139880990863
 51
0.0007868374988804
  0
ARC
  5
409
330
1F
100
AcDbEntity
  8
PROJECTION
  6
PHL_THICK
 62
     7
100
AcDbCircle
 10
-887.6
 20
87.61
 30
0.0
 40
0.1000004552
100
AcDbArc
 50
0.0003497045010886
 51
89.98601164479322
  0
ELLIPSE
  5
40A
330
1F
100
AcDbEntity
  8
PROJECTION
  6
PHL_THICK
 62
     7
100
AcDbEllipse
 10
-856.142241
 20
1.3
 30
0.0
 11
3.673940397442059E-16
 21
6.0
 31
0.0
210
0.0
220
0.0
230
1.0
 40
0.8390941666666666
 41
3.983381156563326
 42
4.583199022630027
  0
ELLIPSE
  5
40B
330
1F
100
AcDbEntity
  8
PROJECTION
  6
PHL_THICK
 62
     7
100
AcDbEllipse
 10
-851.149528
 20
6.3
 30
0.0
 11
1.163414459189985E-15
 21
19.0
 31
0.0
210
0.0
220
0.0
230
1.0
 40
0.0000054210526316
 41
1.51363393599799
 42
1.627958721795265
  0
ELLIPSE
  5
40C
330
1F
100
AcDbEntity
  8
PROJECTION
  6
PHL_THICK
 62
     7
100
AcDbEllipse
 10
-848.6323
 20
1.3
 30
0.0
 11
3.673940397442059E-16
 21
6.0
 31
0.0
210
0.0
220
0.0
230
1.0
 40
0.839105
 41
2.299811189975787
 42
2.617996879056839
  0
ELLIPSE
  5
40D
330
1F
100
AcDbEntity
  8
PROJECTION
  6
PHL_THICK
 62
     7
100
AcDbEllipse
 10
-712.273553
 20
1.3
 30
0.0
 11
3.673940397442059E-16
 21
6.0
 31
0.0
210
0.0
220
0.0
230
1.0
 40
0.8390941666666666
 41
3.325973565510844
 42
3.769560375413934
  0
ELLIPSE
  5
40E
330
1F
100
AcDbEntity
  8
PROJECTION
  6
PHL_THICK
 62
     7
100
AcDbEllipse
 10
-711.350472
 20
6.3
 30
0.0
 11
1.163414459189985E-15
 21
19.0
 31
0.0
210
0.0
220
0.0
230
1.0
 40
0.0000054210526316
 41
1.5051826541866
 42
1.636410004939757
  0
ELLIPSE
  5
40F
330
1F
100
AcDbEntity
  8
PROJECTION
  6
PHL_THICK
 62
     7
100
AcDbEllipse
 10
-706.3579
 20
1.3
 30
0.0
 11
3.673940397442059E-16
 21
6.0
 31
0.0
210
0.0
220
0.0
230
1.0
 40
0.839105
 41
1.699985308181837
 42
2.513628364757002
  0
ARC
  5
410
330
1F
100
AcDbEntity
  8
PROJECTION
  6
PHL_THICK
 62
     7
100
AcDbCircle
 10
-674.9
 20
57.81
 30
0.0
 40
0.1000004552
100
AcDbArc
 50
179.9992131625011
 51
269.9860119009137
  0
ARC
  5
411
330
1F
100
AcDbEntity
  8
PROJECTION
  6
PHL_THICK
 62
     7
100
AcDbCircle
 10
-674.9
 20
87.61
 30
0.0
 40
0.1000004552
100
AcDbArc
 50
90.0139883552068
 51
179.9996502954989
  0
ELLIPSE
  5
412
330
1F
100
AcDbEntity
  8
PROJECTION
  6
PHL_THICK
 62
     7
100
AcDbEllipse
 10
-602.608309
 20
1.3
 30
0.0
 11
270.365321
 21
0.0
 31
0.0
210
0.0
220
0.0
230
1.0
 40
0.0221921952778848
 41
4.712388874389979
 42
4.911992545807923
  0
ARC
  5
413
330
1F
100
AcDbEntity
  8
PROJECTION
  6
PHL_THICK
 62
     7
100
AcDbCircle
 10
-575.1
 20
57.81
 30
0.0
 40
0.1000004552
100
AcDbArc
 50
270.0139880990863
 51
0.0007868374988804
  0
ARC
  5
414
330
1F
100
AcDbEntity
  8
PROJECTION
  6
PHL_THICK
 62
     7
100
AcDbCircle
 10
-575.1
 20
87.61
 30
0.0
 40
0.1000004552
100
AcDbArc
 50
0.0003497045010886
 51
89.98601164479322
  0
ELLIPSE
  5
415
330
1F
100
AcDbEntity
  8
PROJECTION
  6
PHL_THICK
 62
     7
100
AcDbEllipse
 10
-543.642241
 20
1.3
 30
0.0
 11
3.673940397442059E-16
 21
6.0
 31
0.0
210
0.0
220
0.0
230
1.0
 40
0.8390941666666666
 41
3.983381156563326
 42
4.583199022630027
  0
ELLIPSE
  5
416
330
1F
100
AcDbEntity
  8
PROJECTION
  6
PHL_THICK
 62
     7
100
AcDbEllipse
 10
-538.649528
 20
6.3
 30
0.0
 11
1.163414459189985E-15
 21
19.0
 31
0.0
210
0.0
220
0.0
230
1.0
 40
0.0000054210526316
 41
1.51363393599799
 42
1.627958721795265
  0
ELLIPSE
  5
417
330
1F
100
AcDbEntity
  8
PROJECTION
  6
PHL_THICK
 62
     7
100
AcDbEllipse
 10
-536.1323
 20
1.3
 30
0.0
 11
3.673940397442059E-16
 21
6.0
 31
0.0
210
0.0
220
0.0
230
1.0
 40
0.839105
 41
2.299811189975787
 42
2.617996879056839
  0
ELLIPSE
  5
418
330
1F
100
AcDbEntity
  8
PROJECTION
  6
PHL_THICK
 62
     7
100
AcDbEllipse
 10
-399.773553
 20
1.3
 30
0.0
 11
3.673940397442059E-16
 21
6.0
 31
0.0
210
0.0
220
0.0
230
1.0
 40
0.8390941666666666
 41
3.325967606641535
 42
3.769560375413934
  0
ELLIPSE
  5
419
330
1F
100
AcDbEntity
  8
PROJECTION
  6
PHL_THICK
 62
     7
100
AcDbEllipse
 10
-398.850472
 20
6.3
 30
0.0
 11
1.163414459189985E-15
 21
19.0
 31
0.0
210
0.0
220
0.0
230
1.0
 40
0.0000054210526316
 41
1.5051826541866
 42
1.636410004939757
  0
ELLIPSE
  5
41A
330
1F
100
AcDbEntity
  8
PROJECTION
  6
PHL_THICK
 62
     7
100
AcDbEllipse
 10
-393.8579
 20
1.3
 30
0.0
 11
3.673940397442059E-16
 21
6.0
 31
0.0
210
0.0
220
0.0
230
1.0
 40
0.839105
 41
1.699985308181837
 42
2.513628364757002
  0
ARC
  5
41B
330
1F
100
AcDbEntity
  8
PROJECTION
  6
PHL_THICK
 62
     7
100
AcDbCircle
 10
-362.4
 20
57.81
 30
0.0
 40
0.1000004552
100
AcDbArc
 50
179.9992131625011
 51
270.0034970248041
  0
ARC
  5
41C
330
1F
100
AcDbEntity
  8
PROJECTION
  6
PHL_THICK
 62
     7
100
AcDbCircle
 10
-362.4
 20
87.61
 30
0.0
 40
0.1000004552
100
AcDbArc
 50
89.99650291110059
 51
179.9996502954989
  0
ELLIPSE
  5
41D
330
1F
100
AcDbEntity
  8
PROJECTION
  6
PHL_THICK
 62
     7
100
AcDbEllipse
 10
-290.108309
 20
1.3
 30
0.0
 11
270.365321
 21
0.0
 31
0.0
210
0.0
220
0.0
230
1.0
 40
0.0221921952778848
 41
4.712388987265319
 42
4.911992490489911
  0
ARC
  5
41E
330
1F
100
AcDbEntity
  8
PROJECTION
  6
PHL_THICK
 62
     7
100
AcDbCircle
 10
-262.6
 20
57.81
 30
0.0
 40
0.1000004552
100
AcDbArc
 50
269.9965029751958
 51
0.0007868374988799
  0
ARC
  5
41F
330
1F
100
AcDbEntity
  8
PROJECTION
  6
PHL_THICK
 62
     7
100
AcDbCircle
 10
-262.6
 20
87.61
 30
0.0
 40
0.1000004552
100
AcDbArc
 50
0.0003497045010886
 51
90.00349708889941
  0
ELLIPSE
  5
420
330
1F
100
AcDbEntity
  8
PROJECTION
  6
PHL_THICK
 62
     7
100
AcDbEllipse
 10
-231.142241
 20
1.3
 30
0.0
 11
3.673940397442059E-16
 21
6.0
 31
0.0
210
0.0
220
0.0
230
1.0
 40
0.8390941666666666
 41
3.983377118740138
 42
4.583199803553216
  0
ELLIPSE
  5
421
330
1F
100
AcDbEntity
  8
PROJECTION
  6
PHL_THICK
 62
     7
100
AcDbEllipse
 10
-226.149598
 20
1.3
 30
0.0
 11
3.673940397442059E-16
 21
6.0
 31
0.0
210
0.0
220
0.0
230
1.0
 40
0.0000055
 41
2.687369047236177
 42
3.181101252880225
  0
ELLIPSE
  5
422
330
1F
100
AcDbEntity
  8
PROJECTION
  6
PHL_THICK
 62
     7
100
AcDbEllipse
 10
-226.149528
 20
6.3
 30
0.0
 11
1.163414459189985E-15
 21
19.0
 31
0.0
210
0.0
220
0.0
230
1.0
 40
0.0000054210526316
 41
1.496242324998731
 42
1.645350333949577
  0
ELLIPSE
  5
423
330
1F
100
AcDbEntity
  8
PROJECTION
  6
PHL_THICK
 62
     7
100
AcDbEllipse
 10
-223.6323
 20
1.3
 30
0.0
 11
3.673940397442059E-16
 21
6.0
 31
0.0
210
0.0
220
0.0
230
1.0
 40
0.839105
 41
2.299807152177646
 42
2.617994254331277
  0
ELLIPSE
  5
424
330
1F
100
AcDbEntity
  8
PROJECTION
  6
PHL_THICK
 62
     7
100
AcDbEllipse
 10
-87.273553
 20
1.3
 30
0.0
 11
3.673940397442059E-16
 21
6.0
 31
0.0
210
0.0
220
0.0
230
1.0
 40
0.8390941666666666
 41
3.32596909636128
 42
3.769559149114993
  0
ELLIPSE
  5
425
330
1F
100
AcDbEntity
  8
PROJECTION
  6
PHL_THICK
 62
     7
100
AcDbEllipse
 10
-86.350543
 20
1.3
 30
0.0
 11
3.673940397442059E-16
 21
6.0
 31
0.0
210
0.0
220
0.0
230
1.0
 40
0.0000055
 41
2.996620415090592
 42
3.229040755740157
  0
ELLIPSE
  5
426
330
1F
100
AcDbEntity
  8
PROJECTION
  6
PHL_THICK
 62
     7
100
AcDbEllipse
 10
-86.350472
 20
6.3
 30
0.0
 11
1.163414459189985E-15
 21
19.0
 31
0.0
210
0.0
220
0.0
230
1.0
 40
0.0000054210526316
 41
1.50047587869008
 42
1.64111677966799
  0
ELLIPSE
  5
427
330
1F
100
AcDbEntity
  8
PROJECTION
  6
PHL_THICK
 62
     7
100
AcDbEllipse
 10
-81.3579
 20
1.3
 30
0.0
 11
3.673940397442059E-16
 21
6.0
 31
0.0
210
0.0
220
0.0
230
1.0
 40
0.839105
 41
1.699985503408021
 42
2.513627138470078
  0
ARC
  5
428
330
1F
100
AcDbEntity
  8
PROJECTION
  6
PHL_THICK
 62
     7
100
AcDbCircle
 10
-49.9
 20
57.81
 30
0.0
 40
0.1000004552
100
AcDbArc
 50
179.9992131625011
 51
269.9991257437994
  0
ARC
  5
429
330
1F
100
AcDbEntity
  8
PROJECTION
  6
PHL_THICK
 62
     7
100
AcDbCircle
 10
-49.9
 20
87.61
 30
0.0
 40
0.1000004552
100
AcDbArc
 50
90.00087427219992
 51
179.9996502944974
  0
ELLIPSE
  5
42A
330
1F
100
AcDbEntity
  8
PROJECTION
  6
PHL_THICK
 62
     7
100
AcDbEllipse
 10
22.391691
 20
1.3
 30
0.0
 11
270.365321
 21
0.0
 31
0.0
210
0.0
220
0.0
230
1.0
 40
0.0221921952778848
 41
4.712388980210624
 42
4.911992490489911
  0
ARC
  5
42B
330
1F
100
AcDbEntity
  8
PROJECTION
  6
PHL_THICK
 62
     7
100
AcDbCircle
 10
49.9
 20
57.81
 30
0.0
 40
0.1000004552
100
AcDbArc
 50
270.0008742562006
 51
0.00078683749888
  0
ARC
  5
42C
330
1F
100
AcDbEntity
  8
PROJECTION
  6
PHL_THICK
 62
     7
100
AcDbCircle
 10
49.9
 20
87.61
 30
0.0
 40
0.1000004552
100
AcDbArc
 50
0.0003497055025771
 51
89.99912572780009
  0
ELLIPSE
  5
42D
330
1F
100
AcDbEntity
  8
PROJECTION
  6
PHL_THICK
 62
     7
100
AcDbEllipse
 10
75.999929
 20
1.3
 30
0.0
 11
3.673940397442059E-16
 21
6.0
 31
0.0
210
0.0
220
0.0
230
1.0
 40
0.0000055
 41
2.97226953405434
 42
3.205135035374471
  0
ELLIPSE
  5
42E
330
1F
100
AcDbEntity
  8
PROJECTION
  6
PHL_THICK
 62
     7
100
AcDbEllipse
 10
81.357759
 20
1.3
 30
0.0
 11
3.673940397442059E-16
 21
6.0
 31
0.0
210
0.0
220
0.0
230
1.0
 40
0.8390941666666666
 41
3.983377118740138
 42
4.583199803553216
  0
ELLIPSE
  5
42F
330
1F
100
AcDbEntity
  8
PROJECTION
  6
PHL_THICK
 62
     7
100
AcDbEllipse
 10
86.350402
 20
1.3
 30
0.0
 11
3.673940397442059E-16
 21
6.0
 31
0.0
210
0.0
220
0.0
230
1.0
 40
0.0000055
 41
2.687369047236177
 42
3.181101252880225
  0
ELLIPSE
  5
430
330
1F
100
AcDbEntity
  8
PROJECTION
  6
PHL_THICK
 62
     7
100
AcDbEllipse
 10
86.350472
 20
6.3
 30
0.0
 11
1.163414459189985E-15
 21
19.0
 31
0.0
210
0.0
220
0.0
230
1.0
 40
0.0000054210526316
 41
1.496242324998731
 42
1.645350333949577
  0
ELLIPSE
  5
431
330
1F
100
AcDbEntity
  8
PROJECTION
  6
PHL_THICK
 62
     7
100
AcDbEllipse
 10
88.8677
 20
1.3
 30
0.0
 11
3.673940397442059E-16
 21
6.0
 31
0.0
210
0.0
220
0.0
230
1.0
 40
0.839105
 41
2.299807152177646
 42
2.617994254331277
  0
ELLIPSE
  5
432
330
1F
100
AcDbEntity
  8
PROJECTION
  6
PHL_THICK
 62
     7
100
AcDbEllipse
 10
225.226447
 20
1.3
 30
0.0
 11
3.673940397442059E-16
 21
6.0
 31
0.0
210
0.0
220
0.0
230
1.0
 40
0.8390941666666666
 41
3.325967606641535
 42
3.769557922813714
  0
ELLIPSE
  5
433
330
1F
100
AcDbEntity
  8
PROJECTION
  6
PHL_THICK
 62
     7
100
AcDbEllipse
 10
226.149457
 20
1.3
 30
0.0
 11
3.673940397442059E-16
 21
6.0
 31
0.0
210
0.0
220
0.0
230
1.0
 40
0.0000055
 41
3.229040755740157
 42
9.060603374496422
  0
ELLIPSE
  5
434
330
1F
100
AcDbEntity
  8
PROJECTION
  6
PHL_THICK
 62
     7
100
AcDbEllipse
 10
226.149528
 20
6.3
 30
0.0
 11
1.163414459189985E-15
 21
19.0
 31
0.0
210
0.0
220
0.0
230
1.0
 40
0.0000054210526316
 41
1.495043032570281
 42
1.646549626551134
  0
ELLIPSE
  5
435
330
1F
100
AcDbEntity
  8
PROJECTION
  6
PHL_THICK
 62
     7
100
AcDbEllipse
 10
231.1421
 20
1.3
 30
0.0
 11
3.673940397442059E-16
 21
6.0
 31
0.0
210
0.0
220
0.0
230
1.0
 40
0.839105
 41
1.699985698635684
 42
2.513625912185493
  0
ARC
  5
436
330
1F
100
AcDbEntity
  8
PROJECTION
  6
PHL_THICK
 62
     7
100
AcDbCircle
 10
262.6
 20
57.81
 30
0.0
 40
0.1000004552
100
AcDbArc
 50
179.9992131625011
 51
270.0034970248041
  0
ARC
  5
437
330
1F
100
AcDbEntity
  8
PROJECTION
  6
PHL_THICK
 62
     7
100
AcDbCircle
 10
262.6
 20
87.61
 30
0.0
 40
0.1000004552
100
AcDbArc
 50
89.99650291110059
 51
179.9996502954989
  0
ELLIPSE
  5
438
330
1F
100
AcDbEntity
  8
PROJECTION
  6
PHL_THICK
 62
     7
100
AcDbEllipse
 10
334.891691
 20
1.3
 30
0.0
 11
270.365321
 21
0.0
 31
0.0
210
0.0
220
0.0
230
1.0
 40
0.0221921952778848
 41
4.712388987265319
 42
4.911992435175055
  0
ARC
  5
439
330
1F
100
AcDbEntity
  8
PROJECTION
  6
PHL_THICK
 62
     7
100
AcDbCircle
 10
362.4
 20
57.81
 30
0.0
 40
0.1000004552
100
AcDbArc
 50
269.9965029751958
 51
0.0007868374988799
  0
ARC
  5
43A
330
1F
100
AcDbEntity
  8
PROJECTION
  6
PHL_THICK
 62
     7
100
AcDbCircle
 10
362.4
 20
87.61
 30
0.0
 40
0.1000004552
100
AcDbArc
 50
0.0003497045010886
 51
90.00349708889941
  0
ELLIPSE
  5
43B
330
1F
100
AcDbEntity
  8
PROJECTION
  6
PHL_THICK
 62
     7
100
AcDbEllipse
 10
388.499929
 20
1.3
 30
0.0
 11
3.673940397442059E-16
 21
6.0
 31
0.0
210
0.0
220
0.0
230
1.0
 40
0.0000055
 41
3.428291925199235
 42
8.85354154357965
  0
ELLIPSE
  5
43C
330
1F
100
AcDbEntity
  8
PROJECTION
  6
PHL_THICK
 62
     7
100
AcDbEllipse
 10
393.857759
 20
1.3
 30
0.0
 11
3.673940397442059E-16
 21
6.0
 31
0.0
210
0.0
220
0.0
230
1.0
 40
0.8390941666666666
 41
3.983377118740138
 42
4.583199803553216
  0
ELLIPSE
  5
43D
330
1F
100
AcDbEntity
  8
PROJECTION
  6
PHL_THICK
 62
     7
100
AcDbEllipse
 10
398.850402
 20
1.3
 30
0.0
 11
3.673940397442059E-16
 21
6.0
 31
0.0
210
0.0
220
0.0
230
1.0
 40
0.0000055
 41
3.181101252880225
 42
8.628405047339637
  0
ELLIPSE
  5
43E
330
1F
100
AcDbEntity
  8
PROJECTION
  6
PHL_THICK
 62
     7
100
AcDbEllipse
 10
398.850472
 20
6.3
 30
0.0
 11
1.163414459189985E-15
 21
19.0
 31
0.0
210
0.0
220
0.0
230
1.0
 40
0.0000054210526316
 41
1.496242324998731
 42
1.645350333949577
  0
ELLIPSE
  5
43F
330
1F
100
AcDbEntity
  8
PROJECTION
  6
PHL_THICK
 62
     7
100
AcDbEllipse
 10
401.3677
 20
1.3
 30
0.0
 11
3.673940397442059E-16
 21
6.0
 31
0.0
210
0.0
220
0.0
230
1.0
 40
0.839105
 41
2.299807152177646
 42
2.617991629613399
  0
ELLIPSE
  5
440
330
1F
100
AcDbEntity
  8
PROJECTION
  6
PHL_THICK
 62
     7
100
AcDbEllipse
 10
537.726447
 20
1.3
 30
0.0
 11
3.673940397442059E-16
 21
6.0
 31
0.0
210
0.0
220
0.0
230
1.0
 40
0.8390941666666666
 41
3.325973565510844
 42
3.769560375413934
  0
ELLIPSE
  5
441
330
1F
100
AcDbEntity
  8
PROJECTION
  6
PHL_THICK
 62
     7
100
AcDbEllipse
 10
538.649528
 20
6.3
 30
0.0
 11
1.163414459189985E-15
 21
19.0
 31
0.0
210
0.0
220
0.0
230
1.0
 40
0.0000054210526316
 41
1.5051826541866
 42
1.636410004939757
  0
ELLIPSE
  5
442
330
1F
100
AcDbEntity
  8
PROJECTION
  6
PHL_THICK
 62
     7
100
AcDbEllipse
 10
543.6421
 20
1.3
 30
0.0
 11
3.673940397442059E-16
 21
6.0
 31
0.0
210
0.0
220
0.0
230
1.0
 40
0.839105
 41
1.699985308181837
 42
2.513628364757002
  0
ARC
  5
443
330
1F
100
AcDbEntity
  8
PROJECTION
  6
PHL_THICK
 62
     7
100
AcDbCircle
 10
575.1
 20
57.81
 30
0.0
 40
0.1000004552
100
AcDbArc
 50
179.9992131625011
 51
269.9860119009137
  0
ARC
  5
444
330
1F
100
AcDbEntity
  8
PROJECTION
  6
PHL_THICK
 62
     7
100
AcDbCircle
 10
575.1
 20
87.61
 30
0.0
 40
0.1000004552
100
AcDbArc
 50
90.0139883552068
 51
179.9996502954989
  0
ELLIPSE
  5
445
330
1F
100
AcDbEntity
  8
PROJECTION
  6
PHL_THICK
 62
     7
100
AcDbEllipse
 10
647.391691
 20
1.3
 30
0.0
 11
270.365321
 21
0.0
 31
0.0
210
0.0
220
0.0
230
1.0
 40
0.0221921952778848
 41
4.712388874389979
 42
4.911992545807923
  0
ARC
  5
446
330
1F
100
AcDbEntity
  8
PROJECTION
  6
PHL_THICK
 62
     7
100
AcDbCircle
 10
674.9
 20
57.81
 30
0.0
 40
0.1000004552
100
AcDbArc
 50
270.0139880990863
 51
0.0007868374988804
  0
ARC
  5
447
330
1F
100
AcDbEntity
  8
PROJECTION
  6
PHL_THICK
 62
     7
100
AcDbCircle
 10
674.9
 20
87.61
 30
0.0
 40
0.1000004552
100
AcDbArc
 50
0.0003497045010886
 51
89.98601164479322
  0
ELLIPSE
  5
448
330
1F
100
AcDbEntity
  8
PROJECTION
  6
PHL_THICK
 62
     7
100
AcDbEllipse
 10
706.357759
 20
1.3
 30
0.0
 11
3.673940397442059E-16
 21
6.0
 31
0.0
210
0.0
220
0.0
230
1.0
 40
0.8390941666666666
 41
3.983381156563326
 42
4.583199022630027
  0
ELLIPSE
  5
449
330
1F
100
AcDbEntity
  8
PROJECTION
  6
PHL_THICK
 62
     7
100
AcDbEllipse
 10
711.350472
 20
6.3
 30
0.0
 11
1.163414459189985E-15
 21
19.0
 31
0.0
210
0.0
220
0.0
230
1.0
 40
0.0000054210526316
 41
1.51363393599799
 42
1.627958721795265
  0
ELLIPSE
  5
44A
330
1F
100
AcDbEntity
  8
PROJECTION
  6
PHL_THICK
 62
     7
100
AcDbEllipse
 10
713.8677
 20
1.3
 30
0.0
 11
3.673940397442059E-16
 21
6.0
 31
0.0
210
0.0
220
0.0
230
1.0
 40
0.839105
 41
2.299811189975787
 42
2.617996879056839
  0
ELLIPSE
  5
44B
330
1F
100
AcDbEntity
  8
PROJECTION
  6
PHL_THICK
 62
     7
100
AcDbEllipse
 10
850.226447
 20
1.3
 30
0.0
 11
3.673940397442059E-16
 21
6.0
 31
0.0
210
0.0
220
0.0
230
1.0
 40
0.8390941666666666
 41
3.325973565510844
 42
3.769560375413934
  0
ELLIPSE
  5
44C
330
1F
100
AcDbEntity
  8
PROJECTION
  6
PHL_THICK
 62
     7
100
AcDbEllipse
 10
851.149528
 20
6.3
 30
0.0
 11
1.163414459189985E-15
 21
19.0
 31
0.0
210
0.0
220
0.0
230
1.0
 40
0.0000054210526316
 41
1.5051826541866
 42
1.636410004939757
  0
ELLIPSE
  5
44D
330
1F
100
AcDbEntity
  8
PROJECTION
  6
PHL_THICK
 62
     7
100
AcDbEllipse
 10
856.1421
 20
1.3
 30
0.0
 11
3.673940397442059E-16
 21
6.0
 31
0.0
210
0.0
220
0.0
230
1.0
 40
0.839105
 41
1.699985308181837
 42
2.513628364757002
  0
ARC
  5
44E
330
1F
100
AcDbEntity
  8
PROJECTION
  6
PHL_THICK
 62
     7
100
AcDbCircle
 10
887.6
 20
57.81
 30
0.0
 40
0.1000004552
100
AcDbArc
 50
179.9992131625011
 51
269.9860119009137
  0
ARC
  5
44F
330
1F
100
AcDbEntity
  8
PROJECTION
  6
PHL_THICK
 62
     7
100
AcDbCircle
 10
887.6
 20
87.61
 30
0.0
 40
0.1000004552
100
AcDbArc
 50
90.0139883552068
 51
179.9996502954989
  0
ELLIPSE
  5
450
330
1F
100
AcDbEntity
  8
PROJECTION
  6
PHL_THICK
 62
     7
100
AcDbEllipse
 10
959.891691
 20
1.3
 30
0.0
 11
270.365321
 21
0.0
 31
0.0
210
0.0
220
0.0
230
1.0
 40
0.0221921952778848
 41
4.712388874389979
 42
4.911992545807923
  0
ARC
  5
451
330
1F
100
AcDbEntity
  8
PROJECTION
  6
PHL_THICK
 62
     7
100
AcDbCircle
 10
987.4
 20
57.81
 30
0.0
 40
0.1000004552
100
AcDbArc
 50
270.0139880990863
 51
0.0007868374988804
  0
ARC
  5
452
330
1F
100
AcDbEntity
  8
PROJECTION
  6
PHL_THICK
 62
     7
100
AcDbCircle
 10
987.4
 20
87.61
 30
0.0
 40
0.1000004552
100
AcDbArc
 50
0.0003497045010886
 51
89.98601164479322
  0
ELLIPSE
  5
453
330
1F
100
AcDbEntity
  8
PROJECTION
  6
PHL_THICK
 62
     7
100
AcDbEllipse
 10
1018.857759
 20
1.3
 30
0.0
 11
3.673940397442059E-16
 21
6.0
 31
0.0
210
0.0
220
0.0
230
1.0
 40
0.8390941666666666
 41
3.983381156563326
 42
4.583199022630027
  0
ELLIPSE
  5
454
330
1F
100
AcDbEntity
  8
PROJECTION
  6
PHL_THICK
 62
     7
100
AcDbEllipse
 10
1023.850472
 20
6.3
 30
0.0
 11
1.163414459189985E-15
 21
19.0
 31
0.0
210
0.0
220
0.0
230
1.0
 40
0.0000054210526316
 41
1.51363393599799
 42
1.627958721795265
  0
ELLIPSE
  5
455
330
1F
100
AcDbEntity
  8
PROJECTION
  6
PHL_THICK
 62
     7
100
AcDbEllipse
 10
1026.3677
 20
1.3
 30
0.0
 11
3.673940397442059E-16
 21
6.0
 31
0.0
210
0.0
220
0.0
230
1.0
 40
0.839105
 41
2.299811189975787
 42
2.617996879056839
  0
ELLIPSE
  5
456
330
1F
100
AcDbEntity
  8
PROJECTION
  6
PHL_THICK
 62
     7
100
AcDbEllipse
 10
1162.726447
 20
1.3
 30
0.0
 11
3.673940397442059E-16
 21
6.0
 31
0.0
210
0.0
220
0.0
230
1.0
 40
0.8390941666666666
 41
3.325961647760162
 42
3.769550564962524
  0
ELLIPSE
  5
457
330
1F
100
AcDbEntity
  8
PROJECTION
  6
PHL_THICK
 62
     7
100
AcDbEllipse
 10
1163.649528
 20
6.3
 30
0.0
 11
1.163414459189985E-15
 21
19.0
 31
0.0
210
0.0
220
0.0
230
1.0
 40
0.0000054210526316
 41
1.5051826541866
 42
1.636410004939757
  0
ELLIPSE
  5
458
330
1F
100
AcDbEntity
  8
PROJECTION
  6
PHL_THICK
 62
     7
100
AcDbEllipse
 10
1168.6421
 20
1.3
 30
0.0
 11
3.673940397442059E-16
 21
6.0
 31
0.0
210
0.0
220
0.0
230
1.0
 40
0.839105
 41
1.699985308181837
 42
2.51361855452336
  0
ARC
  5
459
330
1F
100
AcDbEntity
  8
PROJECTION
  6
PHL_THICK
 62
     7
100
AcDbCircle
 10
1200.1
 20
57.6
 30
0.0
 40
0.1000004552
100
AcDbArc
 50
180.0008742642002
 51
269.9860117728534
  0
ARC
  5
45A
330
1F
100
AcDbEntity
  8
PROJECTION
  6
PHL_THICK
 62
     7
100
AcDbCircle
 10
1200.1
 20
87.4
 30
0.0
 40
0.1000004552
100
AcDbArc
 50
90.01398822714654
 51
179.9991257358038
  0
ELLIPSE
  5
45B
330
1F
100
AcDbEntity
  8
PROJECTION
  6
PHL_THICK
 62
     7
100
AcDbEllipse
 10
1272.391691
 20
1.3
 30
0.0
 11
270.365321
 21
0.0
 31
0.0
210
0.0
220
0.0
230
1.0
 40
0.0221921952778848
 41
4.712389100140659
 42
4.911992324539174
  0
ARC
  5
45C
330
1F
100
AcDbEntity
  8
PROJECTION
  6
PHL_THICK
 62
     7
100
AcDbCircle
 10
1299.9
 20
57.6
 30
0.0
 40
0.1000004552
100
AcDbArc
 50
270.0139882271465
 51
359.9991257357998
  0
ARC
  5
45D
330
1F
100
AcDbEntity
  8
PROJECTION
  6
PHL_THICK
 62
     7
100
AcDbCircle
 10
1299.9
 20
87.4
 30
0.0
 40
0.1000004552
100
AcDbArc
 50
0.0008742641961491
 51
89.98601177285347
  0
ELLIPSE
  5
45E
330
1F
100
AcDbEntity
  8
PROJECTION
  6
PHL_THICK
 62
     7
100
AcDbEllipse
 10
1331.357759
 20
1.3
 30
0.0
 11
3.673940397442059E-16
 21
6.0
 31
0.0
210
0.0
220
0.0
230
1.0
 40
0.8390941666666666
 41
3.983373080881671
 42
4.583199022630027
  0
ELLIPSE
  5
45F
330
1F
100
AcDbEntity
  8
PROJECTION
  6
PHL_THICK
 62
     7
100
AcDbEllipse
 10
1336.350402
 20
1.3
 30
0.0
 11
3.673940397442059E-16
 21
6.0
 31
0.0
210
0.0
220
0.0
230
1.0
 40
0.0000055
 41
2.017065128222068
 42
2.075541331877055
  0
ELLIPSE
  5
460
330
1F
100
AcDbEntity
  8
PROJECTION
  6
PHL_THICK
 62
     7
100
AcDbEllipse
 10
1336.350472
 20
6.3
 30
0.0
 11
1.163414459189985E-15
 21
19.0
 31
0.0
210
0.0
220
0.0
230
1.0
 40
0.0000054210526316
 41
1.51363393599799
 42
1.627958721795265
  0
ELLIPSE
  5
461
330
1F
100
AcDbEntity
  8
PROJECTION
  6
PHL_THICK
 62
     7
100
AcDbEllipse
 10
1338.8677
 20
1.3
 30
0.0
 11
3.673940397442059E-16
 21
6.0
 31
0.0
210
0.0
220
0.0
230
1.0
 40
0.839105
 41
2.299803114416521
 42
2.617986380200699
  0
ENDSEC
  0
SECTION
  2
OBJECTS
  0
DICTIONARY
  5
C
330
0
100
AcDbDictionary
  3
ACAD_GROUP
350
D
  3
ACAD_LAYOUT
350
1A
  3
ACAD_MATERIAL
350
43
  3
ACAD_MLEADERSTYLE
350
6B
  3
ACAD_MLINESTYLE
350
17
  3
ACAD_PLOTSETTINGS
350
19
  3
ACAD_SCALELIST
350
47
  3
ACAD_VISUALSTYLE
350
2A
  3
ACDBHEADERROUNDTRIPXREC
350
462
  3
ACDBVARIABLEDICTIONARY
350
483
  0
DICTIONARY
  5
48E
330
8
100
AcDbDictionary
280
     1
  3
ACAD_XREC_ROUNDTRIP
360
48F
  0
DICTIONARY
  5
D
102
{ACAD_REACTORS
330
C
102
}
330
C
100
AcDbDictionary
  0
DICTIONARY
  5
1A
102
{ACAD_REACTORS
330
C
102
}
330
C
100
AcDbDictionary
  0
DICTIONARY
  5
43
102
{ACAD_REACTORS
330
C
102
}
330
C
100
AcDbDictionary
  3
BYBLOCK
350
45
  3
BYLAYER
350
44
  3
GLOBAL
350
46
  0
DICTIONARY
  5
6B
102
{ACAD_REACTORS
330
C
102
}
330
C
100
AcDbDictionary
  3
STANDARD
350
6C
  0
DICTIONARY
  5
17
102
{ACAD_REACTORS
330
C
102
}
330
C
100
AcDbDictionary
  3
STANDARD
350
18
  0
DICTIONARY
  5
19
102
{ACAD_REACTORS
330
C
102
}
330
C
100
AcDbDictionary
  0
DICTIONARY
  5
47
102
{ACAD_REACTORS
330
C
102
}
330
C
100
AcDbDictionary
  3
A0
350
48
  3
A1
350
49
  3
A2
350
4A
  3
A3
350
4B
  3
A4
350
4C
  3
A5
350
4D
  3
A6
350
4E
  3
A7
350
4F
  3
A8
350
50
  3
A9
350
51
  3
B0
350
52
  3
B1
350
53
  3
B2
350
54
  3
B3
350
55
  3
B4
350
56
  3
B5
350
57
  3
B6
350
58
  3
B7
350
59
  3
B8
350
5A
  3
B9
350
5B
  3
C0
350
5C
  3
C1
350
5D
  3
C2
350
5E
  3
C3
350
5F
  3
C4
350
60
  3
C5
350
61
  3
C6
350
62
  3
C7
350
63
  3
C8
350
64
  3
C9
350
65
  3
D0
350
66
  3
D1
350
67
  3
D2
350
68
  0
DICTIONARY
  5
2A
102
{ACAD_REACTORS
330
C
102
}
330
C
100
AcDbDictionary
  3
2DWIREFRAME
350
2F
  3
BASIC
350
32
  3
BRIGHTEN
350
36
  3
COLORCHANGE
350
3A
  3
CONCEPTUAL
350
34
  3
DIM
350
35
  3
EDGECOLOROFF
350
3D
  3
FACEPATTERN
350
39
  3
FLAT
350
2B
  3
FLATWITHEDGES
350
2C
  3
GOURAUD
350
2D
  3
GOURAUDWITHEDGES
350
2E
  3
HIDDEN
350
31
  3
JITTEROFF
350
3B
  3
LINEPATTERN
350
38
  3
OVERHANGOFF
350
3C
  3
REALISTIC
350
33
  3
SHADED
350
42
  3
SHADED_WITH_EDGES
350
41
  3
SHADES_OF_GRAY
350
3E
  3
SKETCHY
350
3F
  3
THICKEN
350
37
  3
WIREFRAME
350
30
  3
X-RAY
350
40
  0
DICTIONARY
  5
462
102
{ACAD_REACTORS
330
C
102
}
330
C
100
AcDbDictionary
  3
CEPSNID
350
46C
  3
CEPSNTYPE
350
46B
  3
DIMSTYLEDATA
350
482
  3
FINGERPRINTGUID
350
46D
  3
HYPERLINKBASE
350
465
  3
INSUNITS
350
46A
  3
LAYOUTDICT
350
467
  3
LWETCUNION
350
469
  3
PLOTSETDICT
350
468
  3
PSVPSCALE
350
46F
  3
PUCSBASE
350
472
  3
PUCSORGBACK
350
478
  3
PUCSORGBOTTOM
350
474
  3
PUCSORGFRONT
350
477
  3
PUCSORGLEFT
350
475
  3
PUCSORGRIGHT
350
476
  3
PUCSORGTOP
350
473
  3
PUCSORTHOREF
350
470
  3
PUCSORTHOVIEW
350
471
  3
STYLESHEET
350
466
  3
TSTACKALIGN
350
463
  3
TSTACKSIZE
350
464
  3
UCSBASE
350
47B
  3
UCSORGBACK
350
481
  3
UCSORGBOTTOM
350
47D
  3
UCSORGFRONT
350
480
  3
UCSORGLEFT
350
47E
  3
UCSORGRIGHT
350
47F
  3
UCSORGTOP
350
47C
  3
UCSORTHOREF
350
479
  3
UCSORTHOVIEW
350
47A
  3
VERSIONGUID
350
46E
  0
DICTIONARY
  5
483
102
{ACAD_REACTORS
330
C
102
}
330
C
100
AcDbDictionary
  3
CANNOSCALE
350
490
  3
CENTEREXE
350
48A
  3
CENTERLTYPEFILE
350
48B
  3
CMLEADERSTYLE
350
485
  3
CTABLESTYLE
350
484
  3
DIMASSOC
350
48C
  3
HIDETEXT
350
48D
  3
MSLTSCALE
350
491
  3
PSOLHEIGHT
350
487
  3
PSOLWIDTH
350
486
  0
XRECORD
  5
48F
102
{ACAD_REACTORS
330
48E
102
}
330
48E
100
AcDbXrecord
102
VTR_0.000_0.000_1.000_1.000_VISUALSTYLE
340
2F
102
VTR_0.000_0.000_1.000_1.000_GRIDDISPLAY
 70
     3
102
VTR_0.000_0.000_1.000_1.000_GRIDMAJOR
 70
     5
102
VTR_0.000_0.000_1.000_1.000_DEFAULTLIGHTING
280
     1
102
VTR_0.000_0.000_1.000_1.000_DEFAULTLIGHTINGTYPE
 70
     1
102
VTR_0.000_0.000_1.000_1.000_BRIGHTNESS
141
0.0
102
VTR_0.000_0.000_1.000_1.000_CONTRAST
142
0.0
  0
MATERIAL
  5
45
102
{ACAD_REACTORS
330
43
102
}
102
{ACAD_XDICTIONARY
360
494
102
}
330
43
100
AcDbMaterial
  1
BYBLOCK
  0
MATERIAL
  5
44
102
{ACAD_REACTORS
330
43
102
}
102
{ACAD_XDICTIONARY
360
492
102
}
330
43
100
AcDbMaterial
  1
BYLAYER
  0
MATERIAL
  5
46
102
{ACAD_REACTORS
330
43
102
}
102
{ACAD_XDICTIONARY
360
496
102
}
330
43
100
AcDbMaterial
  1
GLOBAL
  0
ACAD_PROXY_OBJECT
  5
6C
102
{ACAD_REACTORS
330
6B
102
}
330
6B
100
AcDbProxyObject
 90
      499
 91
      505
 93
      610
310
40901902A4063FBFFFFFE0000000000000020400000000000020404214DD185B99185C990000000000000104090141901A00000000000004100000000000000041025764000000000000039000
340
14
340
0
340
11
340
0
 94
        0
1001
ACAD_MLEADERVER
1070
     2
  0
MLINESTYLE
  5
18
102
{ACAD_REACTORS
330
17
102
}
330
17
100
AcDbMlineStyle
  2
Standard
 70
     0
  3

 62
   256
 51
90.0
 52
90.0
 71
     2
 49
0.5
 62
   256
  6
BYLAYER
 49
-0.5
 62
   256
  6
BYLAYER
  0
ACAD_PROXY_OBJECT
  5
48
102
{ACAD_REACTORS
330
47
102
}
330
47
100
AcDbProxyObject
 90
      499
 91
      503
 93
       41
310
903313A31580
  0
ACAD_PROXY_OBJECT
  5
49
102
{ACAD_REACTORS
330
47
102
}
330
47
100
AcDbProxyObject
 90
      499
 91
      503
 93
      105
310
903313A324000000000000004000
  0
ACAD_PROXY_OBJECT
  5
4A
102
{ACAD_REACTORS
330
47
102
}
330
47
100
AcDbProxyObject
 90
      499
 91
      503
 93
      105
310
903313A344000000000000104000
  0
ACAD_PROXY_OBJECT
  5
4B
102
{ACAD_REACTORS
330
47
102
}
330
47
100
AcDbProxyObject
 90
      499
 91
      503
 93
      105
310
903313A354000000000000144000
  0
ACAD_PROXY_OBJECT
  5
4C
102
{ACAD_REACTORS
330
47
102
}
330
47
100
AcDbProxyObject
 90
      499
 91
      503
 93
      105
310
903313A384000000000000204000
  0
ACAD_PROXY_OBJECT
  5
4D
102
{ACAD_REACTORS
330
47
102
}
330
47
100
AcDbProxyObject
 90
      499
 91
      503
 93
      113
310
904313A31304000000000000244000
  0
ACAD_PROXY_OBJECT
  5
4E
102
{ACAD_REACTORS
330
47
102
}
330
47
100
AcDbProxyObject
 90
      499
 91
      503
 93
      113
310
904313A31364000000000000304000
  0
ACAD_PROXY_OBJECT
  5
4F
102
{ACAD_REACTORS
330
47
102
}
330
47
100
AcDbProxyObject
 90
      499
 91
      503
 93
      113
310
904313A32304000000000000344000
  0
ACAD_PROXY_OBJECT
  5
50
102
{ACAD_REACTORS
330
47
102
}
330
47
100
AcDbProxyObject
 90
      499
 91
      503
 93
      113
310
904313A333040000000000003E4000
  0
ACAD_PROXY_OBJECT
  5
51
102
{ACAD_REACTORS
330
47
102
}
330
47
100
AcDbProxyObject
 90
      499
 91
      503
 93
      113
310
904313A34304000000000000444000
  0
ACAD_PROXY_OBJECT
  5
52
102
{ACAD_REACTORS
330
47
102
}
330
47
100
AcDbProxyObject
 90
      499
 91
      503
 93
      113
310
904313A35304000000000000494000
  0
ACAD_PROXY_OBJECT
  5
53
102
{ACAD_REACTORS
330
47
102
}
330
47
100
AcDbProxyObject
 90
      499
 91
      503
 93
      121
310
905313A3130304000000000000594000
  0
ACAD_PROXY_OBJECT
  5
54
102
{ACAD_REACTORS
330
47
102
}
330
47
100
AcDbProxyObject
 90
      499
 91
      503
 93
      105
310
903323A310000000000000010100
  0
ACAD_PROXY_OBJECT
  5
55
102
{ACAD_REACTORS
330
47
102
}
330
47
100
AcDbProxyObject
 90
      499
 91
      503
 93
      105
310
903343A310000000000000410100
  0
ACAD_PROXY_OBJECT
  5
56
102
{ACAD_REACTORS
330
47
102
}
330
47
100
AcDbProxyObject
 90
      499
 91
      503
 93
      105
310
903383A310000000000000810100
  0
ACAD_PROXY_OBJECT
  5
57
102
{ACAD_REACTORS
330
47
102
}
330
47
100
AcDbProxyObject
 90
      499
 91
      503
 93
      113
310
90431303A310000000000000910100
  0
ACAD_PROXY_OBJECT
  5
58
102
{ACAD_REACTORS
330
47
102
}
330
47
100
AcDbProxyObject
 90
      499
 91
      503
 93
      121
310
9053130303A310000000000001650100
  0
ACAD_PROXY_OBJECT
  5
59
102
{ACAD_REACTORS
330
47
102
}
330
47
100
AcDbProxyObject
 90
      499
 91
      503
 93
      257
310
90E312F31323822203D2031272D3022000000000000200FC000000000000284000
  0
ACAD_PROXY_OBJECT
  5
5A
102
{ACAD_REACTORS
330
47
102
}
330
47
100
AcDbProxyObject
 90
      499
 91
      503
 93
      249
310
90D312F363422203D2031272D3022000000000000240FC000000000000284000
  0
ACAD_PROXY_OBJECT
  5
5B
102
{ACAD_REACTORS
330
47
102
}
330
47
100
AcDbProxyObject
 90
      499
 91
      503
 93
      249
310
90D312F333222203D2031272D3022000000000000280FC000000000000284000
  0
ACAD_PROXY_OBJECT
  5
5C
102
{ACAD_REACTORS
330
47
102
}
330
47
100
AcDbProxyObject
 90
      499
 91
      503
 93
      249
310
90D312F313622203D2031272D30220000000000002C0FC000000000000284000
  0
ACAD_PROXY_OBJECT
  5
5D
102
{ACAD_REACTORS
330
47
102
}
330
47
100
AcDbProxyObject
 90
      499
 91
      503
 93
      249
310
90D332F333222203D2031272D30220000000000002E0FC000000000000284000
  0
ACAD_PROXY_OBJECT
  5
5E
102
{ACAD_REACTORS
330
47
102
}
330
47
100
AcDbProxyObject
 90
      499
 91
      503
 93
      241
310
90C312F3822203D2031272D3022000000000000300FC000000000000284000
  0
ACAD_PROXY_OBJECT
  5
5F
102
{ACAD_REACTORS
330
47
102
}
330
47
100
AcDbProxyObject
 90
      499
 91
      503
 93
      249
310
90D332F313622203D2031272D3022000000000000320FC000000000000284000
  0
ACAD_PROXY_OBJECT
  5
60
102
{ACAD_REACTORS
330
47
102
}
330
47
100
AcDbProxyObject
 90
      499
 91
      503
 93
      241
310
90C312F3422203D2031272D3022000000000000340FC000000000000284000
  0
ACAD_PROXY_OBJECT
  5
61
102
{ACAD_REACTORS
330
47
102
}
330
47
100
AcDbProxyObject
 90
      499
 91
      503
 93
      241
310
90C332F3822203D2031272D3022000000000000360FC000000000000284000
  0
ACAD_PROXY_OBJECT
  5
62
102
{ACAD_REACTORS
330
47
102
}
330
47
100
AcDbProxyObject
 90
      499
 91
      503
 93
      241
310
90C312F3222203D2031272D3022000000000000380FC000000000000284000
  0
ACAD_PROXY_OBJECT
  5
63
102
{ACAD_REACTORS
330
47
102
}
330
47
100
AcDbProxyObject
 90
      499
 91
      503
 93
      241
310
90C332F3422203D2031272D30220000000000003A0FC000000000000284000
  0
ACAD_PROXY_OBJECT
  5
64
102
{ACAD_REACTORS
330
47
102
}
330
47
100
AcDbProxyObject
 90
      499
 91
      503
 93
      161
310
90A3122203D2031272D30224000000000000284000
  0
ACAD_PROXY_OBJECT
  5
65
102
{ACAD_REACTORS
330
47
102
}
330
47
100
AcDbProxyObject
 90
      499
 91
      503
 93
      257
310
90E312D312F3222203D2031272D30220000000000003E0FC000000000000284000
  0
ACAD_PROXY_OBJECT
  5
66
102
{ACAD_REACTORS
330
47
102
}
330
47
100
AcDbProxyObject
 90
      499
 91
      503
 93
      225
310
90A3322203D2031272D302200000000000002100000000000000284000
  0
ACAD_PROXY_OBJECT
  5
67
102
{ACAD_REACTORS
330
47
102
}
330
47
100
AcDbProxyObject
 90
      499
 91
      503
 93
      225
310
90A3622203D2031272D302200000000000006100000000000000284000
  0
ACAD_PROXY_OBJECT
  5
68
102
{ACAD_REACTORS
330
47
102
}
330
47
100
AcDbProxyObject
 90
      499
 91
      503
 93
      249
310
90D31272D3022203D2031272D30220000000000000A100000000000000284000
  0
ACAD_PROXY_OBJECT
  5
2F
102
{ACAD_REACTORS
330
2A
102
}
330
2A
100
AcDbProxyObject
 90
      499
 91
      501
 93
      436
310
42CC9915DA5C99599C985B595049028333333333333E33F0000000000000F90107901411070040501600405405064090741402480A0340
1001
ACAD
1000
AcDbSavedByObjectVersion
1070
     0
  0
ACAD_PROXY_OBJECT
  5
32
102
{ACAD_REACTORS
330
2A
102
}
330
2A
100
AcDbProxyObject
 90
      499
 91
      501
 93
      388
310
4150985CDA58D07406404333333333333E33F0000000000000F90107A41107004050150841D405064090741402480A0350
1001
ACAD
1000
AcDbSavedByObjectVersion
1070
     0
  0
ACAD_PROXY_OBJECT
  5
36
102
{ACAD_REACTORS
330
2A
102
}
330
2A
100
AcDbProxyObject
 90
      499
 91
      501
 93
      428
310
42109C9A59DA1D195B90C409028333333333333E33F0000000000000F9010790141107004050150841D405064090741402480A029950
1001
ACAD
1000
AcDbSavedByObjectVersion
1070
     0
  0
ACAD_PROXY_OBJECT
  5
3A
102
{ACAD_REACTORS
330
2A
102
}
330
2A
100
AcDbProxyObject
 90
      499
 91
      501
 93
      452
310
42D0DBDB1BDC90DA185B99D95104090240C333333333333E33F0000000000000F90108901411070040501508421405064090741402480A0350
1001
ACAD
1000
AcDbSavedByObjectVersion
1070
     0
  0
ACAD_PROXY_OBJECT
  5
34
102
{ACAD_REACTORS
330
2A
102
}
330
2A
100
AcDbProxyObject
 90
      499
 91
      501
 93
      500
310
4290DBDB98D95C1D1D585B10940D028333333333333E33F0000000000000F90107902409070040501000000000018199010841D405064090740C02480A0340
1001
ACAD
1000
AcDbSavedByObjectVersion
1070
     0
  0
ACAD_PROXY_OBJECT
  5
35
102
{ACAD_REACTORS
330
2A
102
}
330
2A
100
AcDbProxyObject
 90
      499
 91
      501
 93
      412
310
40D11A5B50B409028333333333333E33F0000000000000F9010790141107004050150841D405064090741402480A02677FFFFFD0
1001
ACAD
1000
AcDbSavedByObjectVersion
1070
     0
  0
ACAD_PROXY_OBJECT
  5
3D
102
{ACAD_REACTORS
330
2A
102
}
330
2A
100
AcDbProxyObject
 90
      499
 91
      501
 93
      452
310
43115919D950DBDB1BDC93D999916409028333333333333E33F0000000000000F9010790141107004050150841D405064090741402480A0350
1001
ACAD
1000
AcDbSavedByObjectVersion
1070
     0
  0
ACAD_PROXY_OBJECT
  5
39
102
{ACAD_REACTORS
330
2A
102
}
330
2A
100
AcDbProxyObject
 90
      499
 91
      501
 93
      444
310
42D19858D95C185D1D195C9B90F409028333333333333E33F0000000000000F9010790141107004050150841D405064090741402480A0350
1001
ACAD
1000
AcDbSavedByObjectVersion
1070
     0
  0
ACAD_PROXY_OBJECT
  5
2B
102
{ACAD_REACTORS
330
2A
102
}
330
2A
100
AcDbProxyObject
 90
      499
 91
      501
 93
      380
310
41119B185D240901404333333333333E33F0000000000000F9010740A907004050150841D405064090741402480A1B50
1001
ACAD
1000
AcDbSavedByObjectVersion
1070
     0
  0
ACAD_PROXY_OBJECT
  5
2C
102
{ACAD_REACTORS
330
2A
102
}
330
2A
100
AcDbProxyObject
 90
      499
 91
      501
 93
      468
310
43519B185D15DA5D1A115919D95CD0140901404333333333333E33F0000000000000F90107409019070040501600405405064090741402480A1B50
1001
ACAD
1000
AcDbSavedByObjectVersion
1070
     0
  0
ACAD_PROXY_OBJECT
  5
2D
102
{ACAD_REACTORS
330
2A
102
}
330
2A
100
AcDbProxyObject
 90
      499
 91
      501
 93
      404
310
41D1DBDD5C985D5910240902404333333333333E33F0000000000000F9010740A9070040501641D405064090741402480A1B50
1001
ACAD
1000
AcDbSavedByObjectVersion
1070
     0
  0
ACAD_PROXY_OBJECT
  5
2E
102
{ACAD_REACTORS
330
2A
102
}
330
2A
100
AcDbProxyObject
 90
      499
 91
      501
 93
      492
310
4411DBDD5C985D5915DA5D1A115919D95CD0340902404333333333333E33F0000000000000F90107409019070040501600405405064090741402480A1B50
1001
ACAD
1000
AcDbSavedByObjectVersion
1070
     0
  0
ACAD_PROXY_OBJECT
  5
31
102
{ACAD_REACTORS
330
2A
102
}
330
2A
100
AcDbProxyObject
 90
      499
 91
      501
 93
      476
310
41921A5919195B90640502408333333333333E33F0000000000000F901079024090700405020000000000001110200405405064090740C02480A0340
1001
ACAD
1000
AcDbSavedByObjectVersion
1070
     0
  0
ACAD_PROXY_OBJECT
  5
3B
102
{ACAD_REACTORS
330
2A
102
}
330
2A
100
AcDbProxyObject
 90
      499
 91
      501
 93
      428
310
42529A5D1D195C93D999914409028333333333333E33F0000000000000F9010790141107004050150A41D405064090741402480A0350
1001
ACAD
1000
AcDbSavedByObjectVersion
1070
     0
  0
ACAD_PROXY_OBJECT
  5
38
102
{ACAD_REACTORS
330
2A
102
}
330
2A
100
AcDbProxyObject
 90
      499
 91
      501
 93
      444
310
42D31A5B995C185D1D195C9B90E409028333333333333E33F0000000000000F9010790141107004050750841D405064090741402483A0350
1001
ACAD
1000
AcDbSavedByObjectVersion
1070
     0
  0
ACAD_PROXY_OBJECT
  5
3C
102
{ACAD_REACTORS
330
2A
102
}
330
2A
100
AcDbProxyObject
 90
      499
 91
      501
 93
      444
310
42D3DD995C9A185B99D3D999915409028333333333333E33F0000000000000F9010790141107004050150941D405064090741402480A0350
1001
ACAD
1000
AcDbSavedByObjectVersion
1070
     0
  0
ACAD_PROXY_OBJECT
  5
33
102
{ACAD_REACTORS
330
2A
102
}
330
2A
100
AcDbProxyObject
 90
      499
 91
      501
 93
      428
310
425499585B1A5CDD1A58D08409038333333333333E33F0000000000000F9010740A907004050150800405405064090740C02480A1B40
1001
ACAD
1000
AcDbSavedByObjectVersion
1070
     0
  0
ACAD_PROXY_OBJECT
  5
42
102
{ACAD_REACTORS
330
2A
102
}
330
2A
100
AcDbProxyObject
 90
      499
 91
      501
 93
      420
310
4194DA1859195911B40902404333333333333E33F0000000000000F9010740A41107004050150800405405064090840C02480A0B40
1001
ACAD
1000
AcDbSavedByObjectVersion
1070
     0
  0
ACAD_PROXY_OBJECT
  5
41
102
{ACAD_REACTORS
330
2A
102
}
330
2A
100
AcDbProxyObject
 90
      499
 91
      501
 93
      516
310
4454DA18591959081DDA5D1A08195919D95CD1A40902404333333333333E33F0000000000000F901074090142907004050250800405405064090740C02480A0B40
1001
ACAD
1000
AcDbSavedByObjectVersion
1070
     0
  0
ACAD_PROXY_OBJECT
  5
3E
102
{ACAD_REACTORS
330
2A
102
}
330
2A
100
AcDbProxyObject
 90
      499
 91
      501
 93
      532
310
4394DA1859195CC81BD98811DC985E5174090240C333333333333E33F0000000000000F901079024090741D01000000000000111010841D405064090740C02480A0340
1001
ACAD
1000
AcDbSavedByObjectVersion
1070
     0
  0
ACAD_PROXY_OBJECT
  5
3F
102
{ACAD_REACTORS
330
2A
102
}
330
2A
100
AcDbProxyObject
 90
      499
 91
      501
 93
      476
310
41D4DAD95D18DA1E51840502408333333333333E33F0000000000000F901079024090741D01000000000000111010B41D405064090741802480A0340
1001
ACAD
1000
AcDbSavedByObjectVersion
1070
     0
  0
ACAD_PROXY_OBJECT
  5
37
102
{ACAD_REACTORS
330
2A
102
}
330
2A
100
AcDbProxyObject
 90
      499
 91
      501
 93
      412
310
41D51A1A58DAD95B90D409028333333333333E33F0000000000000F9010790141107004050150C41D405064090741402480A0350
1001
ACAD
1000
AcDbSavedByObjectVersion
1070
     0
  0
ACAD_PROXY_OBJECT
  5
30
102
{ACAD_REACTORS
330
2A
102
}
330
2A
100
AcDbProxyObject
 90
      499
 91
      501
 93
      420
310
4255DA5C99599C985B595059028333333333333E33F0000000000000F90107901411070040501600405405064090740C02480A0340
1001
ACAD
1000
AcDbSavedByObjectVersion
1070
     0
  0
ACAD_PROXY_OBJECT
  5
40
102
{ACAD_REACTORS
330
2A
102
}
330
2A
100
AcDbProxyObject
 90
      499
 91
      501
 93
      404
310
41560B54985E51940902404000000000000E03F0000000000000F9010740501907004050150841D405064090740C02480A1B40
1001
ACAD
1000
AcDbSavedByObjectVersion
1070
     0
  0
XRECORD
  5
46C
102
{ACAD_REACTORS
330
462
102
}
330
462
100
AcDbXrecord
340
0
  0
XRECORD
  5
46B
102
{ACAD_REACTORS
330
462
102
}
330
462
100
AcDbXrecord
 90
        0
  0
XRECORD
  5
482
102
{ACAD_REACTORS
330
462
102
}
330
462
100
AcDbXrecord
1000
DSTYLE
1002
{
1070
   340
340
11
1002
}
  0
XRECORD
  5
46D
102
{ACAD_REACTORS
330
462
102
}
330
462
100
AcDbXrecord
  1
{F8FCF8BA-13C2-4F3A-A396-03B122F0B015}
  0
XRECORD
  5
465
102
{ACAD_REACTORS
330
462
102
}
330
462
100
AcDbXrecord
  1

  0
XRECORD
  5
46A
102
{ACAD_REACTORS
330
462
102
}
330
462
100
AcDbXrecord
 90
        4
  0
XRECORD
  5
467
102
{ACAD_REACTORS
330
462
102
}
330
462
100
AcDbXrecord
340
1A
  0
XRECORD
  5
469
102
{ACAD_REACTORS
330
462
102
}
330
462
100
AcDbXrecord
 90
    10781
  0
XRECORD
  5
468
102
{ACAD_REACTORS
330
462
102
}
330
462
100
AcDbXrecord
340
19
  0
XRECORD
  5
46F
102
{ACAD_REACTORS
330
462
102
}
330
462
100
AcDbXrecord
 40
0.0
  0
XRECORD
  5
472
102
{ACAD_REACTORS
330
462
102
}
330
462
100
AcDbXrecord
340
0
  0
XRECORD
  5
478
102
{ACAD_REACTORS
330
462
102
}
330
462
100
AcDbXrecord
 10
0.0
 20
0.0
 30
0.0
  0
XRECORD
  5
474
102
{ACAD_REACTORS
330
462
102
}
330
462
100
AcDbXrecord
 10
0.0
 20
0.0
 30
0.0
  0
XRECORD
  5
477
102
{ACAD_REACTORS
330
462
102
}
330
462
100
AcDbXrecord
 10
0.0
 20
0.0
 30
0.0
  0
XRECORD
  5
475
102
{ACAD_REACTORS
330
462
102
}
330
462
100
AcDbXrecord
 10
0.0
 20
0.0
 30
0.0
  0
XRECORD
  5
476
102
{ACAD_REACTORS
330
462
102
}
330
462
100
AcDbXrecord
 10
0.0
 20
0.0
 30
0.0
  0
XRECORD
  5
473
102
{ACAD_REACTORS
330
462
102
}
330
462
100
AcDbXrecord
 10
0.0
 20
0.0
 30
0.0
  0
XRECORD
  5
470
102
{ACAD_REACTORS
330
462
102
}
330
462
100
AcDbXrecord
340
0
  0
XRECORD
  5
471
102
{ACAD_REACTORS
330
462
102
}
330
462
100
AcDbXrecord
 70
     0
  0
XRECORD
  5
466
102
{ACAD_REACTORS
330
462
102
}
330
462
100
AcDbXrecord
  1

  0
XRECORD
  5
463
102
{ACAD_REACTORS
330
462
102
}
330
462
100
AcDbXrecord
 90
        1
  0
XRECORD
  5
464
102
{ACAD_REACTORS
330
462
102
}
330
462
100
AcDbXrecord
 90
       70
  0
XRECORD
  5
47B
102
{ACAD_REACTORS
330
462
102
}
330
462
100
AcDbXrecord
340
0
  0
XRECORD
  5
481
102
{ACAD_REACTORS
330
462
102
}
330
462
100
AcDbXrecord
 10
0.0
 20
0.0
 30
0.0
  0
XRECORD
  5
47D
102
{ACAD_REACTORS
330
462
102
}
330
462
100
AcDbXrecord
 10
0.0
 20
0.0
 30
0.0
  0
XRECORD
  5
480
102
{ACAD_REACTORS
330
462
102
}
330
462
100
AcDbXrecord
 10
0.0
 20
0.0
 30
0.0
  0
XRECORD
  5
47E
102
{ACAD_REACTORS
330
462
102
}
330
462
100
AcDbXrecord
 10
0.0
 20
0.0
 30
0.0
  0
XRECORD
  5
47F
102
{ACAD_REACTORS
330
462
102
}
330
462
100
AcDbXrecord
 10
0.0
 20
0.0
 30
0.0
  0
XRECORD
  5
47C
102
{ACAD_REACTORS
330
462
102
}
330
462
100
AcDbXrecord
 10
0.0
 20
0.0
 30
0.0
  0
XRECORD
  5
479
102
{ACAD_REACTORS
330
462
102
}
330
462
100
AcDbXrecord
340
0
  0
XRECORD
  5
47A
102
{ACAD_REACTORS
330
462
102
}
330
462
100
AcDbXrecord
 70
     0
  0
XRECORD
  5
46E
102
{ACAD_REACTORS
330
462
102
}
330
462
100
AcDbXrecord
  1
{FAEB1C32-E019-11D5-929B-00C0DF256EC4}
  0
DICTIONARYVAR
  5
490
102
{ACAD_REACTORS
330
483
102
}
330
483
100
DictionaryVariables
280
     0
  1
1:1
  0
DICTIONARYVAR
  5
48A
102
{ACAD_REACTORS
330
483
102
}
330
483
100
DictionaryVariables
280
     0
  1
3.500000
  0
DICTIONARYVAR
  5
48B
102
{ACAD_REACTORS
330
483
102
}
330
483
100
DictionaryVariables
280
     0
  1
acadiso.lin
  0
DICTIONARYVAR
  5
485
102
{ACAD_REACTORS
330
483
102
}
330
483
100
DictionaryVariables
280
     0
  1
Standard
  0
DICTIONARYVAR
  5
484
102
{ACAD_REACTORS
330
483
102
}
330
483
100
DictionaryVariables
280
     0
  1
Standard
  0
DICTIONARYVAR
  5
48C
102
{ACAD_REACTORS
330
483
102
}
330
483
100
DictionaryVariables
280
     0
  1
2
  0
DICTIONARYVAR
  5
48D
102
{ACAD_REACTORS
330
483
102
}
330
483
100
DictionaryVariables
280
     0
  1
1
  0
DICTIONARYVAR
  5
491
102
{ACAD_REACTORS
330
483
102
}
330
483
100
DictionaryVariables
280
     0
  1
1
  0
DICTIONARYVAR
  5
487
102
{ACAD_REACTORS
330
483
102
}
330
483
100
DictionaryVariables
280
     0
  1
80.000000
  0
DICTIONARYVAR
  5
486
102
{ACAD_REACTORS
330
483
102
}
330
483
100
DictionaryVariables
280
     0
  1
5.000000
  0
DICTIONARY
  5
494
330
45
100
AcDbDictionary
280
     1
  3
ACAD_XREC_ROUNDTRIP
360
495
  0
DICTIONARY
  5
492
330
44
100
AcDbDictionary
280
     1
  3
ACAD_XREC_ROUNDTRIP
360
493
  0
DICTIONARY
  5
496
330
46
100
AcDbDictionary
280
     1
  3
ACAD_XREC_ROUNDTRIP
360
497
  0
XRECORD
  5
495
102
{ACAD_REACTORS
330
494
102
}
330
494
100
AcDbXrecord
102
MATERIAL
148
0.0
149
0.0
149
0.0
 93
        0
 94
      127
282
     0
 72
     1
 77
     1
171
     1
175
     1
179
     1
273
     0
  0
XRECORD
  5
493
102
{ACAD_REACTORS
330
492
102
}
330
492
100
AcDbXrecord
102
MATERIAL
148
0.0
149
0.0
149
0.0
 93
        0
 94
      127
282
     0
 72
     1
 77
     1
171
     1
175
     1
179
     1
273
     0
  0
XRECORD
  5
497
102
{ACAD_REACTORS
330
496
102
}
330
496
100
AcDbXrecord
102
MATERIAL
148
0.0
149
0.0
149
0.0
 93
        0
 94
      127
282
     0
 72
     1
 77
     1
171
     1
175
     1
179
     1
273
     0
  0
ENDSEC
  0
EOF
